» » »

Of Mice And Men, Second And Sebring Bass tabs (ver.2)

Artists:  A B C D E F G H I J K L M N O P Q R S T U V W X Y Z # 

Second And Sebring Bass tabs (ver.2)

Of Mice And Men Tabs
 Rating:
4.4/5 (7 votes)
Second And Sebring lessons Tabs too difficult? Try these video lessons and learn fast
1
                Of Mice & Men
Second & Sebring

Tuning: Drop C#

(:00-:21) “I believe its time for me...”
 E|------------------------------------------------------|
 B|----------(x12)-------------(x12)---------------------| (x2)
F#|---------8----------------12------12\10--8(x12)-7(x12)|
C#|-0-00--------------0-00-------------------------------|

(:21-:32) “When I breakthrough...”
 E|---------------------|
 B|---------------------| 
F#|---------------------|
C#|--0~-0~----8~--7~\---|

(:32-:53) ”This time, ill make you...”
 E|----------------------------------------------------------------|
 B|---------(x12)-------------(x12)--------------------------------| (x2)
F#|--------8-----------------8----------------8(x12)-7(x6)--10(x6)-|
C#|-0-00------------0-00-------------------------------------------|

Breakdown
(:55-1:02) “So This time ill make you proud.”
 E|----------------------------|
 B|----------------------------| (x2) 
F#|----------------------------|
C#|-0000-0000--0-0--0000-0000--|

(1:02-1:08) “Proud of who you raised up.”
 E|----------------------------|
 B|----------------------------| (x2) 
F#|----------------------------|
C#|-0000-0000--0-0--0000-0000--|
    **** ****  * *  **** ****

(1:09-1:15) “You know that I will.”
 E|------------------------------------------------------------------------|
 B|------------------------------------------------------------------------|  
F#|-8888~-8888~--8~-8~--8888~-8888~-7777~-7777~-7~-7~--10101010~-10101010~-|
C#|------------------------------------------------------------------------|
    ****  ****   *  *   ****  ****  **** ****   *  *   * * * *   * * * *

(1:15-1:25) “Come back so I can say...”
 E|-----------------------------------------|
 B|-----------------------------------------|
F#|-0~--78~--5~--8-7-5-0~--0~--78~--5~7\----|
C#|-----------------------------------------|

(1:26-1:48) “... my troubled head when your away...”	   4th time do this
 E|-----------------------------------------------------------|---------|(x4)
 B|-----------------------------------------------------------|x--------|
F#|---------------------------------------------------8-7-5-0-|8--7--5--|
C#|-0-000-000-000-000--78-888-888-888-888--55-555-555---------|---------|
      *** *** *** ***     *** *** *** ***     *** ***

Breakdown 2
(1:49-1:56) ”Minds!”
 E|-----------------------------|
 B|-----------------------------|(x2)
F#|-----------------------------|
C#|-0~-0~-0~0~0~-0~-0~---00-----|
    *  *  * * *  *  *    **
(1:56-2:04) ”I hope...”			(2:05
 E|---------|----------------------|     |--------|
 B|---------|----------------------|(x2) |--------|
F#|---------|----------------------|     |--9-8-7-|
C#|-0-0-00--|-0-0-00-0-0-00-0-0-00-|     |--------|
                                **
(2:06-2:12) “I hope You smile.”
 E|----------------------|
 B|----------------------|(x2)
F#|----------------------|
C#|-0-0-00-0-0-00-0-0-00-|
    * * ** * * ** * * **  

(2:13-2:26) “This Cant. We wont Know”
 E|-------------------|
 B|-------------------|
F#|-5--7---8--10--12--|
C#|-------------------|

(2:26-End) “This is not. What it is...”
 E|---------------------------------|
 B|---------------------------------|
F#|---------------------------------|
C#|-0----8---3---10-----------------|
            
Submit corrections

comments powered by Disqus
↑ Back to top | Of Mice And Men Bass for Second And Sebring. Lyrics for acoustic guitar and electric guitar. 1 Tablatures and chords are parodies/interpretations of the original songs. You may use it for private study, scholarship, research or language learning purposes only