» » »

Of Mice And Men, Second And Sebring Tabs (ver.3)

Artists:  A B C D E F G H I J K L M N O P Q R S T U V W X Y Z # 

Second And Sebring Tabs (ver.3)

Of Mice And Men Tabs
Rating:
0/5 (0 votes)
Hard to play? Try these video lessons and learn fast.
                This song is in half step down tuning (C# G# C# F# A# D#) These tabs aren't exact, but 
they sound right and are almost 100% perfect.

1---------------------------------------------------------------------------|
2---------------------------------------------------------------------------|
3----10-10-10-10-10-10-10-10-10-10-10-10---10-10-10-10-10-10-10-10-10-10-10-|
4----10-10-10-10-10-10-10-10-10-10-10-10---10-10-10-10-10-10-10-10-10-10-10-|
5-0-------------------------------------0-----------------------------------|
6-0-------------------------------------0-----------------------------------|

1---------------------------------------------------------------------------|
2---------------------------------------------------------------------------|
3-10------------------------------------------------------------------------|
4-10------------------------------------------------------------------------|
5----8-8-8--8--8--8-8-8---7-7-7--7--7--7-7-7x2-0~~~~0~~~~8~~~~7~~~~go back--|
6----8-8-8--8--8--8-8-8---7-7-7--7--7--7-7-7x2-0~~~~0~~~~8~~~~7~~~~to top---|
                                               ^don't play second time^
1----------------------------------------------------------------------------|
2----------------------------------------------------------------------------|
3----------------------------------------------------------------------------|
4----------------------------------------------------------------------------|
5-5-5-5-5--5-5-5-5--5-5--5-5-5-5-x4--5-5-5-5--5-5-5-5--5-5--5-5-5-5--5-5-5-5-|
6-0-0-0-0--0-0-0-0--0-0--0-0-0-0-x4--5-5-5-5--5-5-5-5--5-5--5-5-5-5--5-5-5-5-|
the strumming pattern here^ is dudu dudu dd dudu dudu d=down u=up|pm|

1--------------------------------------------------------|------------------|
2--------------------------------------------------------|------------------|
3--------------------------------------------------------|------------------|
4--------------------------------------------------------|------------------|
5-8-8-8-8--8-8-8-8--8-8--8-8-8-8---0~~~~0~~~7~8~~~~5~~~~x2|---0---0---0---0-|
6-8-8-8-8--8-8-8-8--8-8--8-8-8-8---0~~~~0~~~7~8~~~~5~~~~x2|-000-000-000-000-|
same here as line before^---------------------------------pm-pm-o-pm-pm-o---|

1-------------------------------------|-------------------------------------|
2-------------------------------------|-------------------------------------|
3-------------------------------------|-------------------------------------|
4-------------------------------------|-------------------------------------|
5---8---8---5---5--x4--7-5-3--7-5-3~~~|0-0-0--0-0-0--0-0-0--0--0-0-x8-------|
6-888-888-555-555--x4--7-5-3--7-5-3~~~|0-0-0--0-0-0--0-0-0--0--0-0-x8-------|
pm-pm-o-pm-pm-o-------------------------------------------------------------|

1-------|------|--|----------------------------------------------------------|
2-------|------|--|----------------------------------------------------------|
3--10-x2|-12-x2|x2|----------------------------------------------------------|
4---8-x2|-10-x2|x2|----------------------------------------------------------|
5---8-x2|-10-x2|x2|----0~~~~---8~~~~---3~~~~---2~~~~---0~~~~---8~~~~---3~~~~-|
6---8-x2|-10-x2|x2|-0000~~~~-888~~~~-333~~~~-222~~~~-000~~~~-888~~~~-333~~~~-|

1-----------------------------------||
2-----------------------------------||
3-----------------------------------||
4-----------------------------------||
5---2~~~~-------0~~~~8~~~~3~~~~2~~~~||
6-222~~~~7-5-3--0~~~~8~~~~3~~~~2~~~~||repeat until the song fades out
            

comments powered by Disqus
↑ Back to top | Of Mice And Men Tabs for Second And Sebring. Lyrics for acoustic guitar and electric guitar. Tablatures and chords are parodies/interpretations of the original songs. You may use it for private study, scholarship, research or language learning purposes only