» » »

Purified Tabs (ver.1)

Artists:  A B C D E F G H I J K L M N O P Q R S T U V W X Y Z # 

Purified Tabs (ver.1)

Of Mice And Men
Rating:
5/5 (5 votes)

Hard to play? Try these video lessons and learn fast.
                -------------------------------------------------------------------------------
			                         Purified by Of Mice & Men
-------------------------------------------------------------------------------

This was kind of rushed so I could get it out there, so I'm sure parts of it are wrong.
Also, I incorporated the rhythm and lead guitar parts to be more efficient when creating this tab.

Tuning: Drop C (CGCFAD)

************************************

| ~   let ring
| .   palm mute
| ^   Bend
 
************************************

Intro/chorus (0:00 to 0:13)
D|---------------------------------------------------------------------------|
A|---------------------------------------------------------------------------|
F|---------------------------------------------------------------------------|
C|-7-7-7-7-7-7-7-7----5-5-5-5-5-5-5-5----10101010101010101010101010101010----|
G|-3-3-3-3-3-3-3-3----3-3-3-3-3-3-3-3----8-8-8-8-8-8-8-8-8-8-8-8-8-8-8-8-----|
C|-3-3-3-3-3-3-3-3----2-2-2-2-2-2-2-2----8-8-8-8-8-8-8-8-8-8-8-8-8-8-8-8-----|

D|---------------------------------------------------------------------------|
A|---------------------------------------------------------------------------|
F|---------------------------------------------------------------------------|
C|-7-7-7-7-7-7-7-7----5-5-5-5-5-5-5-5----10~---------------------------------|
G|-3-3-3-3-3-3-3-3----3-3-3-3-3-3-3-3----8~----------------------------------|
C|-3-3-3-3-3-3-3-3----2-2-2-2-2-2-2-2----8~----------------------------------|


Verse (0:14 to 0:25)
D|-----------------------------------------------------------|
A|-----------------------------------------------------------|
F|-9~----10--------------------------------------------------|
C|------------0-0--0--0-0-----0-0--0--0-0-----0-0--0-0-0-0---|\
G|-7~----8----0-0--0--0-0-----0-0--0--0-0-----0-0--0-0-0-0---| \
C|------------0-0--0--0-0-----0-0--0--0-0-----0-0--0-0-0-0---|  \
              . .             . .             . .                \ x2
                                                                 /
D|-----------------------------------------------------------|  /
A|-----------------------------------------------------------| /
F|-9~----7---------------------------------------------------|/
C|------------0-0--0--0-0-----0-0--0--0-0-----0-0--0-0-0-0---|
G|-7~----5----0-0--0--0-0-----0-0--0--0-0-----0-0--0-0-0-0---|
C|------------0-0--0--0-0-----0-0--0--0-0-----0-0--0-0-0-0---|
              . .             . .             . .

At the end of the second time play this instead this:
D|-------------------------------------|
A|-------------------------------------|
F|-9~----7-----------------------------|
C|------------0-0--0--0-0-----0-0--0---|
G|-7~----5----0-0--0--0-0-----0-0--0---|
C|------------0-0--0--0-0-----0-0--0---|
              . .             . . 

Verse extended (0:25 to 0:39)
D|---------------------------------------------------------------------------|
A|---------------------------------------------------------------------------|
F|---------------------------------------------------------------------------| x4
C|--0-0--0--0-0-----0-0--0--0-0-----0-0--0--0-0-----0-0--0-------------------|
G|--0-0--0--0-0-----0-0--0--0-0-----0-0--0--0-0-----0-0--0-------------------|
C|--0-0--0--0-0-----0-0--0--0-0-----0-0--0--0-0-----0-0--0-------------------|
    . .             . .             . .             . .


Bridge (0:39 to 1:00)                                       Play this @ end of 2nd time
D|-----------------------------------------------------------|    |---------------|
A|-----------------------------------------------------------|    |---------------|
F|-----------------------------------------------------------| x2 |---------------|
C|------7-----5--0~---------------------7-----5--8~----------|    |---8-8-8-8-8---|
G|----5-----3----0~-------------------5-----3----8~----------|    |---8-8-8-8-8---|
C|--3-----2------0~-----------------3-----2------8~----------|    |---8-8-8-8-8---|
                                                                      . . . . .

Verse (1:00 to 1:12)
D|-----------------------------------------------------------|
A|-----------------------------------------------------------|
F|-9~----10--------------------------------------------------|
C|------------0-0--0--0-0-----0-0--0--0-0-----0-0--0-0-0-0---|\
G|-7~----8----0-0--0--0-0-----0-0--0--0-0-----0-0--0-0-0-0---| \
C|------------0-0--0--0-0-----0-0--0--0-0-----0-0--0-0-0-0---|  \
              . .             . .             . .                \ x2
                                                                 /
D|-----------------------------------------------------------|  /
A|-----------------------------------------------------------| /
F|-9~----7---------------------------------------------------|/
C|------------0-0--0--0-0-----0-0--0--0-0-----0-0--0-0-0-0---|
G|-7~----5----0-0--0--0-0-----0-0--0--0-0-----0-0--0-0-0-0---|
C|------------0-0--0--0-0-----0-0--0--0-0-----0-0--0-0-0-0---|
              . .             . .             . .

At the end of the second time play this instead:
D|-------------------------------------|
A|-------------------------------------|
F|-9~----7-----------------------------|
C|------------0-0--0--0-0-----0-0--0---|
G|-7~----5----0-0--0--0-0-----0-0--0---|
C|------------0-0--0--0-0-----0-0--0---|
              . .             . . 


Breakdown #1 (1:12 to 1:29)  not so sure about this part
D|-----------------------------------|
A|-----------------------------------|
F|-----------------------------------| x4 (the 4 different endings are shown below)
C|--0-0-0-0--0-0-0-0-0-0-0--0-0-0-0--|
G|--0-0-0-0--0-0-0-0-0-0-0--0-0-0-0--|
C|--0-0-0-0--0-0-0-0-0-0-0--0-0-0-0--|

               1st         2nd            3rd               4th
  D|----------|----------|-----------------|-888----------|
  A|----------|----------|-101010----------|----101010810-|
  F|----------|----------|-------101010910-|--------------|
  C|-333------|-777------|-----------------|--------------|
  G|----55535-|----88878-|-----------------|--------------|
  C|----------|----------|-----------------|--------------|

Then it ends with:
D|---------------|
A|---------------|
F|--7~------14~--|
C|---------------|
G|--5~------12~--|
C|---------------|


Chorus (1:29 to 1:55)
D|---------------------------------------------------------------------------|
A|---------------------------------------------------------------------------|
F|---------------------------------------------------------------------------| x2
C|-7-7-7-7-7-7-7-7----5-5-5-5-5-5-5-5----10101010101010101010101010101010----|
G|-3-3-3-3-3-3-3-3----3-3-3-3-3-3-3-3----8-8-8-8-8-8-8-8-8-8-8-8-8-8-8-8-----|
C|-3-3-3-3-3-3-3-3----2-2-2-2-2-2-2-2----8-8-8-8-8-8-8-8-8-8-8-8-8-8-8-8-----|

D|----------------------------------------------------------------------------|
A|----------------------------------------------------------------------------|
F|----------------------------------------------------------------------------|x2
C|-7--7~-7--7-7-7-----5--5~-5--5-5-5-----10-10~-10-101010---10-10~-10-101010--|
G|-3--3~-3--3-3-3-----3--3~-3--3-3-3-----8--8~--8--8-8-8----8--8~--8--8-8-8---|
C|-3--3~-3--3-3-3-----2--2~-2--2-2-2-----8--8~--8--8-8-8----8--8~--8--8-8-8---|
            . . .              . . .               . . .              . . .


Verse (1:55 to 2:09)
D|-----------------------------------------------------------|
A|-----------------------------------------------------------|
F|-9~----10--------------------------------------------------|
C|------------0-0--0--0-0-----0-0--0--0-0-----0-0--0-0-0-0---|\
G|-7~----8----0-0--0--0-0-----0-0--0--0-0-----0-0--0-0-0-0---| \
C|------------0-0--0--0-0-----0-0--0--0-0-----0-0--0-0-0-0---|  \
              . .             . .             . .                \ x2
                                                                 /
D|-----------------------------------------------------------|  /
A|-----------------------------------------------------------| /
F|-9~----7---------------------------------------------------|/
C|------------0-0--0--0-0-----0-0--0--0-0-----0-0--0-0-0-0---|
G|-7~----5----0-0--0--0-0-----0-0--0--0-0-----0-0--0-0-0-0---|
C|------------0-0--0--0-0-----0-0--0--0-0-----0-0--0-0-0-0---|
              . .             . .             . .

At the end of the second time play this instead:
D|-------------------------------------|
A|-------------------------------------|
F|-9~----7-----------------------------|
C|------------0-0--0--0-0-----0-0--0---|
G|-7~----5----0-0--0--0-0-----0-0--0---|
C|------------0-0--0--0-0-----0-0--0---|
              . .             . . 


Slow part (2:09 to 2:22)
D|--------------------------------------------------------|
A|--------------------------------------------------------|
F|--10-10-10-10-9--9--9--9--9--7--7--7--7---7^-7^-7^-7^---|
C|--------------------------------------------------------|
G|--8--8--8--8--7--7--7--7--7--5--5--5--5---5^-5^-5^-5^---|
C|--------------------------------------------------------|


Breakdown #2 (2:22 to 2:53)-the first 2 times are played over the octave chords,
				and the second 2 are played alone
D|--------------------------------------------------------------|
A|--------------------------------------------------------------|
F|--------------------------------------------------------------| x4
C|-000---000-----0----0--0---00-0---0-----00-0--0--00-0--00-0---|
G|-000---000-----0----0--0---00-0---0-----00-0--0--00-0--00-0---|
C|-000---000-----0----0--0---00-0---0-----00-0--0--00-0--00-0---|

Then it ends with:

D|---------------|
A|---------------|
F|--7~------14~--|
C|---------------|
G|--5~------12~--|
C|---------------|


Chorus (2:53 to 3:20)
D|---------------------------------------------------------------------------|
A|---------------------------------------------------------------------------|
F|---------------------------------------------------------------------------| x2
C|-7-7-7-7-7-7-7-7----5-5-5-5-5-5-5-5----10101010101010101010101010101010----|
G|-3-3-3-3-3-3-3-3----3-3-3-3-3-3-3-3----8-8-8-8-8-8-8-8-8-8-8-8-8-8-8-8-----|
C|-3-3-3-3-3-3-3-3----2-2-2-2-2-2-2-2----8-8-8-8-8-8-8-8-8-8-8-8-8-8-8-8-----|

D|----------------------------------------------------------------------------|
A|----------------------------------------------------------------------------|
F|----------------------------------------------------------------------------|x2
C|-7--7~-7--7-7-7-----5--5~-5--5-5-5-----10-10~-10-101010---10-10~-10-101010--|
G|-3--3~-3--3-3-3-----3--3~-3--3-3-3-----8--8~--8--8-8-8----8--8~--8--8-8-8---|
C|-3--3~-3--3-3-3-----2--2~-2--2-2-2-----8--8~--8--8-8-8----8--8~--8--8-8-8---|
            . . .              . . .               . . .              . . .


Verse(3:20 – 3:35)
D|-----------------------------------------------------------|
A|-----------------------------------------------------------|
F|-9~----10--------------------------------------------------|
C|------------0-0--0--0-0-----0-0--0--0-0-----0-0--0-0-0-0---|\
G|-7~----8----0-0--0--0-0-----0-0--0--0-0-----0-0--0-0-0-0---| \
C|------------0-0--0--0-0-----0-0--0--0-0-----0-0--0-0-0-0---|  \
              . .             . .             . .                \ 
                                                                 /
D|-----------------------------------------------------------|  /
A|-----------------------------------------------------------| /
F|-9~----7---------------------------------------------------|/
C|------------0-0--0--0-0-----0-0--0--0-0-----0-0--0-0-0-0---|
G|-7~----5----0-0--0--0-0-----0-0--0--0-0-----0-0--0-0-0-0---|
C|------------0-0--0--0-0-----0-0--0--0-0-----0-0--0-0-0-0---|
              . .             . .             . .

And finally ends with

D|-----------|
A|-----------|
F|--9~----7--|
C|-----------|
G|--7~----5--|
C|-----------|
            
Hard to play? Try these video lessons and learn fast. | Correct




comments powered by Disqus
↑ Back to top | Tablatures and chords are parodies/interpretations of the original songs. You may use it for private study, scholarship, research or language learning purposes only