» » »

Of Mice And Men, Og Loko Bass tabs (ver.1)

Artists:  A B C D E F G H I J K L M N O P Q R S T U V W X Y Z # 

Og Loko Bass tabs (ver.1)

Of Mice And Men Tabs
 Rating:
4.4/5 (7 votes)
Og Loko lessons Tabs too difficult? Try these video lessons and learn fast
                
Tuning: Drop C

Intro [0:04-0:07]
F|-------|
C|-------|
G|-------|
C|-0~----|

Verse 1 [0:07-0:23]
F|-----------------------------------------------------|
C|-----------------------------------------------------|
G|777------777------33333035-777------777------33333035|
C|---0-3-0----0-3-0-------------0-3-0----0-3-0---------|[x2]

End on...
F|-------|
C|-------|
G|-------|
C|-3~----|

Breakdown [0:23-0:36] (on the second time around, let notes ring)
F|----------------------------------------------------|
C|----------------------------------------------------|
G|----------------------------------------------------|
C|0000-0-0-0000-0-0-000000000000-0-0-0000-0-0-00000000|[x2]

Verse 2 [0:36-0:52
F|--------------------------------------------------------------|
C|--------------------------------------------------------------|
G|5-------------5-----------------5------------5-----------1111~|
C|--0-1-0-00------0-1-0-00--12/1----0-1-0-00-----0-1-0-00-------|

Chorus 1 [0:52-1:06]
F|------------------------------------------------------|
C|------------------------------------------------------|
G|------------------------------------------------------|
C|0-0-0-0--0-0--0-0-0-0--0-0--8-8-8-8--8-8--5-5-5-5--5-5|

F|------------------------------------------------------|
C|------------------------------------------------------|
G|------------------------------------------------------|
C|0-0-0-0--0-0--0-0-0-0--0-0--3-3-3-3--3-3--5-5-5-5--5-5|

Chorus 2 [:1:06-1:26]
F|-----------------------------------------------------------|
C|-----------------------------------------------------------|
G|-----------------------------------------------------------|
C|0000-0000-0-00-0000-0000-0-00-8888-8888-8-88-5555-5555-5-55|

F|-----------------------------------------------------------|
C|-----------------------------------------------------------|
G|-----------------------------------------------------------|
C|0000-0000-0-00-0000-0000-0-00-3333-3333-3-33-5555-5555-5-55|

End On... and then
F|-------|--------|
C|-------|--------|
G|-------|--------|
C|-0~----|-12/1---|

Verse 3 [1:26-1:33]
F|-----------------------------------------------------|
C|-----------------------------------------------------|
G|777------777------33333035-777------777------33333035|
C|---0-3-0----0-3-0-------------0-3-0----0-3-0---------|

Breakdown 2 [1:33-1:47
F|--------------------------------------|
C|--------------------------------------|
G|--------------------------------------|
C|0000-0-0-0--00000000-0000-0-0-0-000000|[x2]

Breakdown 3 [1:47-2:00]
F|-----------------------------------------------------|
C|-----------------------------------------------------|
G|-----------------------------------------------------|
C|8880-0-0-8880-0-0-11111333-8880-0-0-8880-0-0-11111333|

Chorus 1 [2:00-2:14]

Chorus 2 [2:14-2:35]

Intro to Breakdown 4 [2:35-2:50] (optional to play with guitars, just added this for my more play)
F|-----------------------------------------------------------------|
C|-----------------------------------------------------------------|
G|-----------------------------------------------------------------|
C|0000-0000--0000-0000-0000--0000-0000-0000--0000-0000-0000--0000-0|

Breakdown 4 [2:50-3:19]
F|----------------------------------------------|
C|----------------------------------------------|
G|-------------------------------------5------5-|
C|0000-0000--0000-0000-0000-0000-00000-0-0000-0-|[x4]
                  **** **** ****

END




| /  slide up
| \  slide down
| h  hammer-on
| p  pull-off
| ~  vibrato
| +  harmonic
| x  Mute note
| *  Strum faster
===============================================================================
            
Submit corrections

comments powered by Disqus
↑ Back to top | Of Mice And Men Bass for Og Loko. Lyrics for acoustic guitar and electric guitar. Tablatures and chords are parodies/interpretations of the original songs. You may use it for private study, scholarship, research or language learning purposes only