>
 >
Second And Sebring

Second And Sebring Guitar Tabs

Of Mice And Men - Second And Sebring chords, tabs, tablatures, lyrics

Guitar lessons | Add/correct | Request | Top 50 tabs Artists:  A B C D E F G H I J K L M N O P Q R S T U V W X Y Z 0-9

Second And Sebring Guitar Tabs – Of Mice And Men

CD, Sheet music, Poster

Do you like Second And Sebring? Share with your friends now
Bass TabsBass Tabs v2ChordsChords v2Chords v3TabsTabs v2Tabs v3Tabs v4UkuleleUkulele v2
Of Mice & Men
Second & Sebring



d#|---------------------------------------------------------|
A#|---------------------------------------------------------|
F#|---------10-----------------14------14\12----------------|
C#|-0-00-----x(x12)----0-00-----x(x12)--x\-x---8------7-----|(x2)
G#|-0-00-----8---------0-00----12------12\10---8(x12)-7(x12)|
C#|-0-00---------------0-00--------------------8------7-----|
      **                  *                    ^      ^
             listen for strumming pattern------^------^

d#|-------------------|
A#|-------------------|
F#|-------------------|
C#|--0~-----8~--7~\---|
G#|--0~-----8~--7~\---|
C#|--0~-----8~--7~\---|


d#|---------------------------------------------------------|
A#|---------------------------------------------------------|
F#|---------10----------------14----------------------------|
C#|-0~00-----x(x12)---0~00-----x(x12)--8------7------10-----|(x2)
G#|-0~00-----8--------0~00----12-------8(x12)-7(x6)--10(x6)-|
C#|-0~00--------------0~00-------------8------7------10-----|
    * *               * *

Sweet Breakdown
d#|----------------------------|
A#|----------------------------|
F#|----------------------------|
C#|----------------------------|(x2)
G#|----------------------------|
C#|-0000-0000--0-0--0000-0000--|

then
d#|----------------------------|
A#|----------------------------|
F#|----------------------------|
C#|-0000~0000~~0~0~~0000~0000~-|(x2)
G#|-0000~0000~~0~0~~0000~0000~-|
C#|-0000~0000~~0~0~~0000~0000~-|
    **** ****  * *  **** ****


d#|---------------------------------------------------------------------|
A#|---------------------------------------------------------------------|
F#|----------------------------------------------------------------5+---|
C#|-5555~-5555~--5~-5~--5555~-5555~-8888~-8888~-8~-8~--8888~-8888~------|
G#|-5555~-5555~--5~-5~--5555~-5555~-8888~-8888~-8~-8~--8888~-8888~------|
C#|-5555~-5555~--5~-5~--5555~-5555~-8888~-8888~-8~-8~--8888~-8888~------|
    ****  ****   *  *   ****  ****  ****  ****  *  *   ****  ****


d#|-----------------------------------------|
A#|-----------------------------------------|
F#|-----------------------------------------|
C#|-0~--78~--5~------------0~--78~--5~7\----|
G#|-0~--78~--5~--8-7-5-0~--0~--78~--5~7\----|
C#|-0~--78~--5~--8-7-5-0~--0~--78~--5~7\----|
                                                    \End each with/
                                                     \           /
                                                (First 3)     _Last (4th)
d#|-------------------------------------|      |---------|  |----------|
A#|-------------------------------------|      |---------|  |----------|
F#|-------------------------------------|(x4)  |---------|  |----------|
C#|-0-------------------788-----755-----|      |---------|  |----------|
G#|-0------0------0-----788-----755-----|      |-8-7-5-0-|  |--8--7--5-|
C#|-0-0000-0-0000-0-000-788-888-755-555-|      |-8-7-5-0-|  |----------|
      ****   ****  ***      ***     ***                            (x2)


Another Sweet Breakdown
d#|--------------------------------|
A#|--------------------------------|
F#|--------------------------------|
C#|-0~0~--0~0~0~--0~0~0~--0~0--00--|(x2)
G#|-0~0~--0~0~0~--0~0~0~--0~0--00--|
C#|-0~0~--0~0~0~--0~0~0~--0~0--00--|
    * *   * * *   * * *   * *  **

                                             /End each with\
                                            /               \
then                                        (1st)       (2nd)
d#|----------|-----------------------|     |----|     |--------|
A#|----------|-----------------------|     |----|     |--------|
F#|----------|-----------------------|     |----|     |--------|
C#|----------|-----------------------|(x2) |-00-|     |--------|
G#|----------|-----------------------|     |-00-|     |--8-7-5-|
C#|-0-0-000--|-0-0-000-0-0-0-0-000---|     |-00-|     |--------|
       ^                                     **
       ^(only first time)


d#|--------------------------------|
A#|--------------------------------|
F#|--------------------------------|
C#|-0~0~--0~0~0~--0~0~0~--0~0--00--|(x2)
G#|-0~0~--0~0~0~--0~0~0~--0~0--00--|
C#|-0~0~--0~0~0~--0~0~0~--0~0--00--|
    * *   * * *   * * *   * *  **


d#|--------------------------------------------------|
A#|--------------------------------------------------|
F#|---10--------12--------10--------12-------17------|
C#|----x(x16)----x(x16)----x(x16)----x(x8)----x(x8)--|
G#|----8--------10---------8--------10-------15------|
C#|--------------------------------------------------|


d#|--------------------------------|
A#|--------------------------------|
F#|--------------------------------|
C#|-0-------8------3------2--------|(x3)
G#|-0(x8)---8(x8)--3(x8)--2(x8)----|
C#|-0-------8------3------2--------|
Easy strumming pattern here
                                    
                                     End with

d#|----------------------|      |--------------------|
A#|----------------------|      |--------------------|
F#|----------------------|      |--------------------|
C#|-0~~---10~--7~~--5~~--|(x2)  |--2h3^-0~-----------|
G#|-0~~---8~~--3~~--2~~--|      |----|--0~(fade out)-|
C#|-0~~---8~~--3~~--2~~--|      |----|--0~-----------|
     (Strum lightly)                 |
                          (slight bend about 1/4 step)


Let me know what you think.....btw this was my first tab. Go ahead and leave any 
corrections you have for me.

| *  Palm Mute
| /  slide up
| \  slide down
| h  hammer-on
| p  pull-off
| ~  sustain
| +  harmonic
| x  Mute note





Comments


Popular Of Mice And Men tabs & chords
Still Ydgn Bass Tabs
The Ballad Of Tony Clayton And The Rawding Millionaire Bass Tabs
Second And Sebring Chords
Blame It Tabs
My Understandings 1 Tabs
Og Loko 2 Tabs
Second And Sebring 1 Tabs
When You Cant Sleep At Night 4 Tabs
Youre Not Alone 1 Tabs
Second And Sebring 2 Ukulele


Song lyrics



↑ Back to top | Tablatures and chords are parodies/interpretations of the original songs. You may use it for private study, scholarship, research or language learning purposes only
© 2014 AZChords.com Contact us | Privacy policy | DMCA | Add/correct tabs | Request tabs | Top 50 tabs