» » »

Second And Sebring Tabs (ver.2)

Artists:  A B C D E F G H I J K L M N O P Q R S T U V W X Y Z # 

Second And Sebring Tabs (ver.2)

Of Mice And Men
Rating:
5/5 (11 votes)

Tabs too difficult? Try these video lessons and learn fast.
                Of Mice & Men
Second & Sebring
Awesome band! Just started playing notes…and this is what I got! Enjoy!

Tuning: Drop C#

(:00-:21) “I believe its time for me...”
d#|------------------------------------------------------|
A#|------------------------------------------------------|
F#|--------10----------------14------14\12---------------|
C#|-0-00----x(x12)----0-00----x(x12)--x\-x--8------7-----| (x2)
G#|-0-00----8---------0-00---12------12\10--8(x12)-7(x12)|
C#|-0-00--------------0-00------------------8------7-----|

(:21-:32) “When I breakthrough...”
d#|---------------------|
A#|---------------------|
F#|---------------------|
C#|--0~-0~----8~--7~\---| 
G#|--0~-0~----8~--7~\---|
C#|--0~-0~----8~--7~\---|

(:32-:53) ”This time, ill make you...”
d#|----------------------------------------------------------------|
A#|----------------------------------------------------------------|
F#|-------10----------------10-------14----------------------------|
C#|-0-00---x(x12)---0-00-----x(x12)or-x(x12)--8------7------10-----| (x2)
G#|-0-00---8--------0-00-----8-------12-------8(x12)-7(x6)--10(x6)-|
C#|-0-00------------0-00----------------------8------7------10-----|

Breakdown
(:55-1:02) “So This time ill make you proud.”
d#|----------------------------|
A#|----------------------------|
F#|----------------------------|
C#|----------------------------| (x2) 
G#|----------------------------|
C#|-0000-0000--0-0--0000-0000--|

(1:02-1:08) “Proud of who you raised up.”
d#|----------------------------|
A#|----------------------------|
F#|----------------------------|
C#|-0000-0000--0-0--0000-0000--| (x2) 
G#|-0000-0000--0-0--0000-0000--|
C#|-0000-0000--0-0--0000-0000--|
    **** ****  * *  **** ****

(1:09-1:15) “You know that I will.”
d#|------------------------------------------------------------------------|
A#|------------------------------------------------------------------------|
F#|------------------------------------------------------------------------|
C#|-8888~-8888~--8~-8~--8888~-8888~-7777~-7777~-7~-7~--10101010~-10101010~-|  
G#|-8888~-8888~--8~-8~--8888~-8888~-7777~-7777~-7~-7~--10101010~-10101010~-|
C#|-8888~-8888~--8~-8~--8888~-8888~-7777~-7777~-7~-7~--10101010~-10101010~-|
    ****  ****   *  *   ****  ****  **** ****   *  *   * * * *   * * * *

(1:15-1:25) “Come back so I can say...”
d#|-----------------------------------------|
A#|-----------------------------------------|
F#|-----------------------------------------|
C#|-0~--78~--5~------------0~--78~--5~7\----|
G#|-0~--78~--5~--8-7-5-0~--0~--78~--5~7\----|
C#|-0~--78~--5~--8-7-5-0~--0~--78~--5~7\----|

(1:26-1:48) “... my troubled head when your away...”       4th time do this
d#|-----------------------------------------------------------|---------|
A#|-----------------------------------------------------------|---------|
F#|-----------------------------------------------------------|10-9--7--|(x4)
C#|-0------------------78------------------55-----------------|x--x--x--|
G#|-0------------------78------------------55---------8-7-5-0-|8--7--5--|
C#|-0-000-000-000-000--78-888-888-888-888--55-555-555-8-7-5-0-|---------|
      *** *** *** ***     *** *** *** ***     *** ***

Breakdown 2
(1:49-1:56) ”Minds!”
d#|-----------------------------|
A#|-----------------------------|
F#|-----------------------------|
C#|-0~-0~-0~0~0~-0~-0~---00-----|(x2)
G#|-0~-0~-0~0~0~-0~-0~---00-----|
C#|-0~-0~-0~0~0~-0~-0~---00-----|
    *  *  * * *  *  *    **
(1:56-2:04) ”I hope...”                 (2:05
d#|---------|----------------------|     |--------|
A#|---------|----------------------|     |--------|
F#|---------|----------------------|     |--------|
C#|---------|-------------------00-|(x2) |--------|
G#|---------|-------------------00-|     |--9-8-7-|
C#|-0-0-00--|-0-0-00-0-0-00-0-0-00-|     |--------|
                                **
(2:06-2:12) “I hope You smile.”
d#|----------------------|
A#|----------------------|
F#|----------------------|
C#|-0-0-00-0-0-00-0-0-00-|(x2)
G#|-0-0-00-0-0-00-0-0-00-|
C#|-0-0-00-0-0-00-0-0-00-|
    * * ** * * ** * * **  

(2:13-2:26) “This Cant. We wont Know”
d#|-------------------|
A#|-------------------|
F#|-7--9--10--12--14--|
C#|-x--x---x---x---x--|
G#|-5--7---8--10--12--|
C#|-------------------|
(2:26-End) “This is not. What it is...”
d#|---------------------------------|
A#|---------------------------------|
F#|---------------------------------|
C#|-0----8---3---10-----------------|
G#|-0----8---3---10-----------------|
C#|-0----8---3---10-----------------|
Figure Out the strumming pattern. Oh and at the end you just hit each Chord once

| *  Palm Mute
| /  slide up
| \  slide down
| h  hammer-on
| p  pull-off
| ~  vibrato
| +  harmonic
| x  Mute note
============================================================================
            
Tabs too difficult? Try these video lessons and learn fast.


comments powered by Disqus
↑ Back to top | Tablatures and chords are parodies/interpretations of the original songs. You may use it for private study, scholarship, research or language learning purposes only