» » »

Of Mice And Men, Let Tabs (ver.2)

Artists:  A B C D E F G H I J K L M N O P Q R S T U V W X Y Z # 

Let Tabs (ver.2)

Of Mice And Men Tabs
 Rating:
4/5 (4 votes)
Let lessons Tabs too difficult? Try these video lessons and learn fast
1
                (Live)
~ = Let tone ring


Intro

D|-------------------------------------------------|
A|-------------------------------------------------|
F|-------------------------------------------------|
C|All Picking. Not sure about the amount of times--|Repeat one more time
G|5555555555555555555555555555555555533333333333---|But this time, it is 
C|0000000000088888888888800000000000088888888888---|all strumming

Pre-verse
D|------0----0-----------0----0---------------|Let all ring
A|----6--------6-------6--------6-------------|
F|--7------7-----5----7-----7-----5-----------|
C|--------------------------------------------|
G|--------------------------------------------|
C|--------------------------------------------|
Verse

D|----------------------------------------------|
A|----------------------------------------------|
F|----------------------------------------------|
C|----------------------------------------------|
G|----5-7--8--5-7---3-3--------7--5-5--7-5-5----|
C|-------0---0----0-------x3-----0-0----0-------|Repeat all once more
Pre-chorus

D|---------------------------------------|
A|---------------------------------------|
F|---------------------------------------|
C|--8---10---0--------8----10----0-------|
G|--8---10---0--------8----10----0-------|
C|--8---10---0--------8----10----0-------|
Chorus

D|------------------------------------------------------------------|
A|------------------------------------------------------------------|
F|------------------------------------------------------------------|
C|------------------------------------------------------------------|
G|---00000000555555550000000033333333-------------------------------|
C|---00000000888888880000000088888888-x2----------------------------|
Post chorus

D|------------------------------|
A|------------------------------|
F|------------------------------|
C|--0-00-00-0--------------8--5-|
G|--0-00-00-0--777333------8--5-|
C|--0-00-00-0---------x8---8--5-|
After the forth time, guitar 2 starts doing this the last four times:

D|-----------------------------|
A|-----------------------------|
F|-----------------------------|
C|---------------------8--5----|
G|--000000000000-------8--5----|
C|--000000000000--x4---8--5----|

Verse 2
D|-----------------------------------|
A|-----------------------------------|
F|-----------------------------------|
C|-----------------------------------|
G|---5-7-8-5-7-8-3-3-----------------|
C|------0---0-0-0-0--x4--------------|

Pre Chorus

D|---------------------------------------|
A|---------------------------------------|
F|---------------------------------------|
C|--8---10---0--------8----10----0-------|
G|--8---10---0--------8----10----0-------|
C|--8---10---0--------8----10----0-------|

Chorus

D|------------------------------------------------------------------|
A|------------------------------------------------------------------|
F|------------------------------------------------------------------|
C|--------------------------------------------0---------------------|
G|---00000000555555550000000033333333---------0---------------------|
C|---00000000888888880000000088888888-x2------0---------------------|

D|------------------------------------------------------------------|
A|------------------------------------------------------------------|
F|------------------------------------------------------------------|
C|---00-00-00-00-000-000---------------------------000-000------0~~-|
G|---00-00-00-00-000-000---------------------------000-000------0~~-|
C|---00-00-00-00-000-000-x2--00-00-00-000-000-000--000-000-x2---0~~-|

Clean part

D|-----------------------------------|
A|----666-666--666--666--------------|
F|----555-555--555--555--------------|
C|--0----0---------------------------|
G|------------0----------------------|
C|-----------------0------x2---------|
Chorus

D|------------------------------------------------------------------|
A|------------------------------------------------------------------|
F|------------------------------------------------------------------|
C|------------------------------------------------------------------|
G|---00000000555555550000000033333333-------------------------------|
C|---00000000888888880000000088888888-x2----------------------------|
Outro

Guitar 1
D|-----------------------------------|
A|-----------------------------------|
F|-----------------------------------|
C|--0-00-0-00------------------------|
G|--0-00-0-00------------------------|
C|--0-00-0-00--x2--------------------|

Guitar 2
D|------0----0-----------0----0---------------|
A|----6--------6-------6--------6-------------|
F|--7------7-----5----7-----7-----5-----------|
C|--------------------------------------------|
G|--------------------------------------------|
C|--------------------------------------------|
            
Submit corrections

comments powered by Disqus
↑ Back to top | Of Mice And Men Tabs for Let. Lyrics for acoustic guitar and electric guitar. 1 Tablatures and chords are parodies/interpretations of the original songs. You may use it for private study, scholarship, research or language learning purposes only