» » »

Let Bass tabs (ver.1)

Artists:  A B C D E F G H I J K L M N O P Q R S T U V W X Y Z # 

Let Bass tabs (ver.1)

Of Mice And Men
Rating:
0/5 (0 votes)

Hard to play? Try these video lessons and learn fast.
                (Live)
Tuning: Drop C

~ = Let Ring
* = Strum Fast
/\ = Slide Up or Down

Intro [0:01-0:13] (I was all for you...)
F|---------------------------------|
C|---------------------------------|
G|---------------------------------|
C|0000000000000000-8888888888888888|

Intro 2 [0:13-0:24]
F|-----------------------------------------|
C|-----------------------------------------|
G|-----------------------------------------|
C|0-0-0-0-0-0-0-0-8-88-8-8-88-8-8-88-8-8-88|x2

End of Intro 2 [0:24-0:30]
F|----------------------------|
C|----------------------------|
G|----------------------------|
C|0~~~~--------0~~~~------12/1|

Verse [0:30-0:42]
F|--------------------------------|
C|--------------------------------|
G|--------------------------------|
C|000-000-000-000-000-000-000-000-|x4

Verse 2 [0:42-0:53]
F|------------------------------------------------------------|
C|------------------------------------------------------------|
G|57-8-5-7-8-3-3-57-8-5-7-8-3-3-57-8-5-7-8-3-3-65-5-5-6-5-5-5-|
C|--0-0-0-0-0-0-0--0-0-0-0-0-0-0--0-0-0-0-0-0-0--0-0-0-0-0-0-0|

Pre-Chorus [0:53-1:05]
F|------------------------------|      |------------------------------|
C|------------------------------|      |------------------------------|   
G|------------------------------|      |1~--------3~------------------|
C|8~--------10~--------0~-------|x2 OR |---------------------0~-------|x2

Chorus [1:05-1:17]
F|----------------------------------|
C|----------------------------------|
G|----------------------------------|
C|0-0-0-0-0-0-0-0-0-8888888888888888|x2

Chorus 2 [1:17-1:28]
F|------------------------------------------|
C|------------------------------------------|
G|------------------------------------------|
C|0000000000000000-8-88-8-8-88-8-8-88-8-8-88|x2

Verse 2 [1:28-1:40]
F|------------------------------|
C|------------------------------|
G|---------777333---------777333|
C|0-00-00-0------0-00-00-0------|x2
           ******         ******
Breakdown 1 [1:40-1:51]
F|------------------------|
C|------------------------|
G|------777333------777333|
C|000000------000000------|x2
        ******      ******
[1:51-1:54] (There are two ways. Doesn't matter, sounds the same.)
F|------------------------|    |------------------------|
C|------------------------|    |------------------------|
G|------------------------|    |1~----------------------|
C|8~----------5~----------| OR |------------5~----------|

[1:54-2:00]
F|--------------------------------|
C|--------------------------------|
G|--------------------------------|
C|000-000-000-000-000-000-000-000-|x2

[2:00-2:06]
F|------------------------------|
C|------------------------------|
G|57-8-5-7-8-3-3-57-8-5-7-8-3-3-|
C|--0-0-0-0-0-0-0--0-0-0-0-0-0-0|

Repeat Pre-Chorus [2:06-2:18]

Repeat Chorus 1 & Chorus 2 [2:18-2:44]

Breakdown 2 [2:44-3:00]
F|--------------------------------------------------------------|
C|--------------------------------------------------------------|   
G|--------------------------------------------------------------|
C|0--0--0-00-00-00-00-00-000-000-0--0--0-00-00-00-00-00-000-0-0-|x2

Breakdown 3 [3:00-3:15]
F|--------------------------------------------------------------|
C|--------------------------------------------------------------|   
G|--------------------------------------------------------------|
C|0~-0~-0~00~00~00~00~00~000-000-0~-0~-0~00~00~00~00~00~000-0-0-|

F|--------------------------------------------------------------|
C|--------------------------------------------------------------|   
G|--------------------------------------------------------------|
C|0--0--0-00-00-00-00-00-000-000-0--0--0-00-00-00-00-00-000-0-0-|

[3:15-3:22]
F|---------------------|
C|---------------------|   
G|---------------------|
C|0~-------------------|

Break... Guitars play only. Unless you want to play with guitars...
[3:31-3:47] (Could be considered a 'Bridge')
F|--------------------------------------------------------------|
C|--------------------------------------------------------------|   
G|--------------------------------------------------------------|
C|8~----------0~-----------------12~-----------8~-----------8-8~|

Repeat Chorus 1 & Chorus 2 [3:47-4:11]

Outro [4:11-4:16]
F|-------------------|
C|-------------------|   
G|-------------------|
C|0--0-0--12/1-0--0-0|
            
Hard to play? Try these video lessons and learn fast. | Correct




comments powered by Disqus
↑ Back to top | Tablatures and chords are parodies/interpretations of the original songs. You may use it for private study, scholarship, research or language learning purposes only