>
 >
Let Live

Let Live Guitar Tabs

Of Mice And Men - Let Live chords, tabs, tablatures, lyrics

Guitar lessons | Add/correct | Request | Top 50 tabs Artists:  A B C D E F G H I J K L M N O P Q R S T U V W X Y Z 0-9

Let Live Guitar Tabs – Of Mice And Men

CD, Sheet music, Poster

Do you like Let Live? Share with your friends now
Bass TabsTabsTabs v2Tabs v3Tabs v4

6/8/11: a few minor updates. its a lot closer than before!

Band: Of Mice & Men

Intro
I was all for you...
e|----------------------------------------|
B|----------------------------------------|
G|----------------------------------------|
D|-00000000000000000000555555555555555555-|
A|-00000000000000000000555555555555555555-|X2
E|-00000000000000000000888888888888888888-|
P.M ......................................|


e|----------------------------------------|
B|----------------------------------------|
G|----------------------------------------|
D|-00000000000000000000055555555555555555-|X2
A|-00000000000000000000055555555555555555-|
E|-00000000000000000000088888888888888888-|

e|---------0~---------0~------------0~---------0~--------|
B|-----------6~----------6~-------------6~--------6~-----|
G|-------7~--------7~--------5~--7~----------7~-------5~-|(let all ring)
D|-------------------------------------------------------|
A|-------------------------------------------------------|
E|-------------------------------------------------------|

Verse 1
e|----------------------------|    e|----------------------------|
B|----------------------------|    B|----------------------------|
G|----------------------------|    G|----------------------------|
D|----------------------------|X3  D|----------------------------|
A|---5-7-8-5--7--8-3-3---|    A|---5--7--8----5--7-7-5------|
E|-0---0--0-----0--0--0-------|    E|-0--0---0----0--0-----------|


e|----------------------------|    e|----------------------------|
B|----------------------------|    B|----------------------------|
G|----------------------------|    G|----------------------------|
D|---3---5--7--3--5--72-2----|X3  D|---3---5--7----3---5-5--3---|
A|----------------------------|    A|----------------------------|
E|-0---0--0-----0--0--0-------|    E|-0---0--0-----0--0----------|

Pre Chorus
                                              1st Ending      2nd Ending
e|-----------------------------------------|--------------|-------------|
B|-----------------------------------------|--------------|-------------|
G|-----------------------------------------|--------------|-------------|
D|-----8~~~--------------------10~~~-------|---0~~~-------|-000-000-000-|
A|-----8~~~--------------------10~~~-------|---0~~~-------|-000-000-000-|
E|-----8~~~--------------------10~~~-------|---0~~~-------|-000-000-000-|




CHORUS

e|----------------------------------------|
B|----------------------------------------|
G|----------------------------------------|
D|-00000000000000000000055555555555555555-|X4
A|-00000000000000000000055555555555555555-|
E|-00000000000000000000088888888888888888-|

Post-Chorus

e|-------------------------------------------------------------------|
B|-------------------------------------------------------------------|
G|-------------------------------------------------------------------|
D|--0-00-00--------0-00-00-------------0-00-00-------0-00-00---------|
A|--0-00-00--7733--0-00-00--7733-------0-00-00--7733-0-00-00--7733---|
E|--0-00-00--------0-00-00-------------0-00-00-------0-00-00---------|

e|---------------------------------------------------------------------|
B|---------------------------------------------------------------------|
G|---------------------------------------------------------------------|
D|---------------------------------------------------------------------|
A|-----------7733------------7733---------------7733-------------7733--|
E|-0-0-0-0-0-----0-0-0-0-0-0------0-0-0-0-0-0-0------0-0-0-0-0-0-------|
P.M. . . . .     . . . . . .      . . . . . . .      . . . . . .       |

e|------------------------------------|
B|------------------------------------|
G|------------------------------------|
D|----8~~------------5~~--------------|
A|----8~~------------5~~--------------|
E|----8~~------------5~~--------------|


 Verse 2 (Both of them work during this part, use one of them)
e|----------------------------|    e|----------------------------|
B|----------------------------|    B|----------------------------|
G|----------------------------|    G|----------------------------|
D|----------------------------|X3  D|----------------------------|
A|---5-7-8-5--7--8-3-3---|    A|---5--7--8----5--7-7-5------|
E|-0---0--0-----0--0--0-------|    E|-0--0---0----0--0-----------|

e|----------------------------|    e|----------------------------|
B|----------------------------|    B|----------------------------|
G|----------------------------|    G|----------------------------|
D|---3---5--7--3--5--72-2----|X3  D|---3---5--7----3---5-5--3---|
A|----------------------------|    A|----------------------------|
E|-0---0--0-----0--0--0-------|    E|-0---0--0-----0--0----------|


                                               1st Ending     2nd Ending
e|-----------------------------------------|--------------|-------------|
B|-----------------------------------------|--------------|-------------|
G|-----------------------------------------|--------------|-------------|
D|-----8~~~--------------------10~~~-------|---0~~~-------|-000-000-000-|
A|-----8~~~--------------------10~~~-------|---0~~~-------|-000-000-000-|
E|-----8~~~--------------------10~~~-------|---0~~~-------|-000-000-000-|


Chorus
e|----------------------------------------|
B|----------------------------------------|
G|----------------------------------------|
D|-00000000000000000000055555555555555555-|X4
A|-00000000000000000000055555555555555555-|
E|-00000000000000000000088888888888888888-|


e|-----------------------|
B|-----------------------|
G|-----------------------|
D|-00-00-00-00-000-000---|X2
A|-00-00-00-00-000-000---|
E|-00-00-00-00-000-000---|


e|----------------------------|   |----------|
B|----------------------------|   |----------|
G|----------------------------|   |----------|
D|-------------------00-00----|X2 |-0~~------|
A|-------------------00-00----|   |-0~~------|
E|-00-00-000-000-000-00-00----|   |-0~~------|

Clean Guitar
e|--------------------------------------|
B|----6-6-6---6-6-6---6-6-6---6-6-6-----|
G|----5-5-5---5-5-5---5-5-5---5-5-5-----|X2 (not too sure about this part)
D|--0-------0---------------------------|   (figure out stumming pattern)
A|------------------0-------------------|
E|--------------------------0-----------|


Last Chorus:
e|----------------------------------------|
B|----------------------------------------|
G|----------------------------------------|
D|-00000000000000000000055555555555555555-|X4
A|-00000000000000000000055555555555555555-|
E|-00000000000000000000088888888888888888-|

Outro:
e|---------0~---------0~------------0~-----------0~--------|
B|-----------6~----------6~-------------6~----------6~-----|
G|-------7~--------7~-------5~-----7~------------7~-----5~-|(let all ring)
D|---------------------------------------------------------|
A|---------------------------------------------------------|
E|---------------------------------------------------------|





Comments


Popular Of Mice And Men tabs & chords
Bones Exposed Bass Tabs
Og Loko Bass Tabs
Purified Chords
Space Enought To Grow Chords
Let Live 2 Tabs
Let Live 3 Tabs
My Understandings Tabs
My Understandings 1 Tabs
Still Ydgn 1 Tabs
This One's For You Tabs


Song lyrics



↑ Back to top | Tablatures and chords are parodies/interpretations of the original songs. You may use it for private study, scholarship, research or language learning purposes only
© 2014 AZChords.com Contact us | Privacy policy | DMCA | Add/correct tabs | Request tabs | Top 50 tabs