» » »

Neil Young, Cinnamon Girl Tabs (ver.3)

Artists:  A B C D E F G H I J K L M N O P Q R S T U V W X Y Z # 

Cinnamon Girl Tabs (ver.3)

Neil Young Tabs
 Rating:
3.3/5 (13 votes)
Cinnamon Girl lessons Tabs too difficult? Try these video lessons and learn fast
1
                -----------------------------------------------------------------------------
                             CINNAMON GIRL - Neil Young & Crazy Horse
-----------------------------------------------------------------------------

Double Drop-D Tuning:dBGDAD 
OBS: This is the tab for the main base guitar. The other guitar
patterns of the studio verdion are based upon arpeggios of 
the chords played througout song.

For the correct struming/rythm, listen to the song


Intro: 2x

d|-----5h--7---0-0---------5h-7---0-0---------------------------------------|
B|-----5h--7---1-1---------5h-7---1-1---------------------------------------|
G|-----5h--7---0-0---------5h-7---0-0---------------------------------------|
D|-----5h--7---2-0---3-5---5h-7---2-0---3-----------------------------------|
A|-------------3-2-0-3-5-0--------3-2-0-3-----------------------------------|
D|-------------------3-5----------------3-----------------------------------|


Verse: 2x

The singing chords are a progression: D5, Am7, Cmaj, G/B with the particular 
sound of the open top d string resounding all over the verses.


d|--0----0----0----0----------------0-----0-(0)-0-0-------------------------|
B|--3----1----1----3----------------3-----1-(0)-1-1-------------------------|
G|--2----0----0----0----------5h-7--2-----0-(0)-0-2-------------------------|
D|--0----2----2----0---3-5----5h-7--0-----2-(0)-2-2-------------------------|
A|--0----0----3----2---3-5--0-3h-5--0-----3-(0)-3-0-------------------------|
D|---------------------3-5-(0)----------------------------------------------|


Repeat Intro

Repeat Verse


Bridge

The bridge is a progression: Cmaj, Gmin7, A5, D5. Note that the D5 chord 
is the interval that opens the solo.

d|--(5)--3--(0)--0----------------------------------------------------------|
B|---5---3---0---3----------------------------------------------------------|
G|---5---3---2---2----------------------------------------------------------|
D|---5---5---2---0----------------------------------------------------------|
A|---3---5---0---0----------------------------------------------------------|
D|--------------------------------------------------------------------------|


The solo, played over the Verse chord progression, is based on the Cmaj scale.
Starts up with a slide from the 1 to 3 fret of the B string, playing the
unison D notes (3 fret B string + open d string). From there, just listen to
it and go with the flow!


Ending

d|---5h-7-------------------------------------------------------------------|
B|---5h-7-------------------------------------------------------------------|
G|---5h-7-------------------------------------------------------------------|
D|---5h-7-------------------------------------------------------------------|
A|---5h-7-------------------------------------------------------------------|
D|--------------------------------------------------------------------------|


The outro part, at the very ending of the song, is over the D5 chord mixed with 
hammerings anternating between the 3 fret of the fifth string, 3 fret of fourth 
and 3 fret of third. Just jam that around.


That's it! Freakin' great tune!



************************************

| h   hammer-on
|( )  half-muted note

************************************
            
Submit corrections

comments powered by Disqus
↑ Back to top | Neil Young Tabs for Cinnamon Girl. Lyrics for acoustic guitar and electric guitar. 1 Tablatures and chords are parodies/interpretations of the original songs. You may use it for private study, scholarship, research or language learning purposes only