» » »

Neil Young, Cinnamon Girl Tabs (ver.2)

Artists:  A B C D E F G H I J K L M N O P Q R S T U V W X Y Z # 

Cinnamon Girl Tabs (ver.2)

Neil Young Tabs
Rating:
4/5 (22 votes)
Cinnamon Girl lessons Tabs too difficult? Try these video lessons and learn fast
                #   If you like this tab, please rate it above.  Thank you.


(Drop D tuning)

  C D   D   DD C B A F G   GG   C D   D   DD C B A F 
|-----x---x-------------------|-----x---x-------------------|
|-5h7-x-7-x-77----------------|-5h7-x-7-x-77----------------|
|-5h7-x-7-x-77----------------|-5h7-x-7-x-77----------------|
|-5h7-x-7-x-77----------------|-5h7-x-7-x-77----------------|
|---5-x-5-x-55-3-2-0-3-5-x-55-|---5-x-5-x-55-3-2-0-3--------|
|--------------------3-5-x-55-|--------------------3--------|

  C D   D   DD C B A F G   GG   C D   D   DD C B A F 
|-----x---x-------------------|-----x---x-------------------|
|-5h7-x-7-x-77----------------|-5h7-x-7-x-77----------------|
|-5h7-x-7-x-77----------------|-5h7-x-7-x-77----------------|
|-5h7-x-7-x-77----------------|-5h7-x-7-x-77----------------|
|---5-x-5-x-55-3-2-0-3-5-x-55-|---5-x-5-x-55-3-2-0-3--------|
|--------------------3-5-x-55-|--------------------3--------|

D                   Am
I wanna live with a cinnamon girl
C                     G 
I could be happy the rest of my life

       F G A C D   D  C B C A
     |-------------------------------|
     |-------------------------------|
     |-------------------------------|
     |-------5-7---7--5-4-5-2--------|
     |-3-5-7-3-5-x-5--3-2-3-0--------|
     |-3-5-7-----x-------------------|
With a cinnamon girl.

D                     Am
A dreamer of pictures I run in the night
C                     G 
You see us together, chasing the moonlight,
       F G A C D   D  C B C A
     |-------------------------------|
     |-------------------------------|
     |-------------------------------|
     |-------5-7---7--5-4-5-2--------|
     |-3-5-7-3-5-x-5--3-2-3-0--------|
     |-3-5-7-----x-------------------|
My cinnamon girl.


  C D   D   DD C B A F G   GG   C D   D   DD C B A F 
|-----x---x-------------------|-----x---x-------------------|
|-5h7-x-7-x-77----------------|-5h7-x-7-x-77----------------|
|-5h7-x-7-x-77----------------|-5h7-x-7-x-77----------------|
|-5h7-x-7-x-77----------------|-5h7-x-7-x-77----------------|
|---5-x-5-x-55-3-2-0-3-5-x-55-|---5-x-5-x-55-3-2-0-3--------|
|--------------------3-5-x-55-|--------------------3--------|


D                     Am
Ten silver saxes, a bass with a bow
C                     G 
The drummer relaxes and waits between shows
       F G A C D   D  C B C A
     |-------------------------------|
     |-------------------------------|
     |-------------------------------|
     |-------5-7---7--5-4-5-2--------|
     |-3-5-7-3-5-x-5--3-2-3-0--------|
     |-3-5-7-----x-------------------|
For his cinnamon girl.

D                     Am
A dreamer of pictures I run in the night
C                     G 
You see us together, chasing the moonlight,
       F G A C D   D  C B C A
     |-------------------------------|
     |-------------------------------|
     |-------------------------------|
     |-------5-7---7--5-4-5-2--------|
     |-3-5-7-3-5-x-5--3-2-3-0--------|
     |-3-5-7-----x-------------------|
My cinnamon girl.

C                                                  
Pa, send me money now, I'm gonna make it somehow,
               Gm      
I need another chance.
                           A
You see your baby loves to dance Yeah...yeah...yeah.

(Lead to verse)
D  Am  C   G   F G A C D   D  C B C A
             |-------------------------------|
             |-------------------------------|
             |-------------------------------|
             |-------5-7---7--5-4-5-2--------|
             |-3-5-7-3-5-x-5--3-2-3-0--------|
             |-3-5-7-----x-------------------|


D  Am  C   G   F G A C D   D  C B C A
             |-------------------------------|
             |-------------------------------|
             |-------------------------------|
             |-------5-7---7--5-4-5-2--------|
             |-3-5-7-3-5-x-5--3-2-3-0--------|
             |-3-5-7-----x-------------------|

(End Lead)
|-------------------------------------------|
|-------------------------------------------|
|-------------2---2-------------------------|
|----0---0-0h3—0h3—-0h3p0—0h3p0----0---0----|
|-0h3—0h3-----------------------0h3—0h3-----|
|----------------------------------------0--|
            

comments powered by Disqus
↑ Back to top | Neil Young Tabs for Cinnamon Girl. Lyrics for acoustic guitar and electric guitar. Tablatures and chords are parodies/interpretations of the original songs. You may use it for private study, scholarship, research or language learning purposes only