>
 >
Cinnamon Girl 1

Cinnamon Girl 1 Guitar Tabs

Neil Young - Cinnamon Girl 1 chords, tabs, tablatures, lyrics

Guitar lessons | Add/correct | Request | Top 50 tabs Artists:  A B C D E F G H I J K L M N O P Q R S T U V W X Y Z 0-9

Cinnamon Girl 1 Guitar Tabs – Neil Young

CD, Sheet music, Poster

Do you like Cinnamon Girl 1? Share with your friends now
Bass TabsBass Tabs v2ChordsChords v2Chords v3TabsTabs v2Tabs v3Tabs v4Tabs v5
#   If you like this tab, please rate it above.  Thank you.


(Drop D tuning)

  C D   D   DD C B A F G   GG   C D   D   DD C B A F 
|-----x---x-------------------|-----x---x-------------------|
|-5h7-x-7-x-77----------------|-5h7-x-7-x-77----------------|
|-5h7-x-7-x-77----------------|-5h7-x-7-x-77----------------|
|-5h7-x-7-x-77----------------|-5h7-x-7-x-77----------------|
|---5-x-5-x-55-3-2-0-3-5-x-55-|---5-x-5-x-55-3-2-0-3--------|
|--------------------3-5-x-55-|--------------------3--------|

  C D   D   DD C B A F G   GG   C D   D   DD C B A F 
|-----x---x-------------------|-----x---x-------------------|
|-5h7-x-7-x-77----------------|-5h7-x-7-x-77----------------|
|-5h7-x-7-x-77----------------|-5h7-x-7-x-77----------------|
|-5h7-x-7-x-77----------------|-5h7-x-7-x-77----------------|
|---5-x-5-x-55-3-2-0-3-5-x-55-|---5-x-5-x-55-3-2-0-3--------|
|--------------------3-5-x-55-|--------------------3--------|

D                   Am
I wanna live with a cinnamon girl
C                     G 
I could be happy the rest of my life

       F G A C D   D  C B C A
     |-------------------------------|
     |-------------------------------|
     |-------------------------------|
     |-------5-7---7--5-4-5-2--------|
     |-3-5-7-3-5-x-5--3-2-3-0--------|
     |-3-5-7-----x-------------------|
With a cinnamon girl.

D                     Am
A dreamer of pictures I run in the night
C                     G 
You see us together, chasing the moonlight,
       F G A C D   D  C B C A
     |-------------------------------|
     |-------------------------------|
     |-------------------------------|
     |-------5-7---7--5-4-5-2--------|
     |-3-5-7-3-5-x-5--3-2-3-0--------|
     |-3-5-7-----x-------------------|
My cinnamon girl.


  C D   D   DD C B A F G   GG   C D   D   DD C B A F 
|-----x---x-------------------|-----x---x-------------------|
|-5h7-x-7-x-77----------------|-5h7-x-7-x-77----------------|
|-5h7-x-7-x-77----------------|-5h7-x-7-x-77----------------|
|-5h7-x-7-x-77----------------|-5h7-x-7-x-77----------------|
|---5-x-5-x-55-3-2-0-3-5-x-55-|---5-x-5-x-55-3-2-0-3--------|
|--------------------3-5-x-55-|--------------------3--------|


D                     Am
Ten silver saxes, a bass with a bow
C                     G 
The drummer relaxes and waits between shows
       F G A C D   D  C B C A
     |-------------------------------|
     |-------------------------------|
     |-------------------------------|
     |-------5-7---7--5-4-5-2--------|
     |-3-5-7-3-5-x-5--3-2-3-0--------|
     |-3-5-7-----x-------------------|
For his cinnamon girl.

D                     Am
A dreamer of pictures I run in the night
C                     G 
You see us together, chasing the moonlight,
       F G A C D   D  C B C A
     |-------------------------------|
     |-------------------------------|
     |-------------------------------|
     |-------5-7---7--5-4-5-2--------|
     |-3-5-7-3-5-x-5--3-2-3-0--------|
     |-3-5-7-----x-------------------|
My cinnamon girl.

C                                                  
Pa, send me money now, I'm gonna make it somehow,
               Gm      
I need another chance.
                           A
You see your baby loves to dance Yeah...yeah...yeah.

(Lead to verse)
D  Am  C   G   F G A C D   D  C B C A
             |-------------------------------|
             |-------------------------------|
             |-------------------------------|
             |-------5-7---7--5-4-5-2--------|
             |-3-5-7-3-5-x-5--3-2-3-0--------|
             |-3-5-7-----x-------------------|


D  Am  C   G   F G A C D   D  C B C A
             |-------------------------------|
             |-------------------------------|
             |-------------------------------|
             |-------5-7---7--5-4-5-2--------|
             |-3-5-7-3-5-x-5--3-2-3-0--------|
             |-3-5-7-----x-------------------|

(End Lead)
|-------------------------------------------|
|-------------------------------------------|
|-------------2---2-------------------------|
|----0---0-0h30h3-0h3p00h3p0----0---0----|
|-0h30h3-----------------------0h30h3-----|
|----------------------------------------0--|





Comments


Popular Neil Young tabs & chords
Cocaine Eyes Chords
Driftin Back Chords
The Believer Chords
Twisted Road Chords
Violent Side Chords
Bad Fog Of Loneliness Tabs
Dead Man 2 Tabs
Hawks And Doves Ukulele
My Heart Ukulele
See The Girl Dance Ukulele


Song lyrics



↑ Back to top | Tablatures and chords are parodies/interpretations of the original songs. You may use it for private study, scholarship, research or language learning purposes only
© 2014 AZChords.com Contact us | Privacy policy | DMCA | Add/correct tabs | Request tabs | Top 50 tabs