» » »

Neil Young, Cinnamon Girl Tabs (ver.1)

Artists:  A B C D E F G H I J K L M N O P Q R S T U V W X Y Z # 

Cinnamon Girl Tabs (ver.1)

Neil Young Tabs
 Rating:
3.6/5 (7 votes)
Cinnamon Girl lessons Tabs too difficult? Try these video lessons and learn fast
                

Intro: Riff 1: Repeat 3 times
D--5-7-7-7--x----------------------
B--5-7-7-7--x---------------x-x-x--
G--5-7-7-7--x--0--0---------x-x-x--
D--5-7-7-7--x--2--0--0--3---x-x-x--
A--------------3--2--0--3---x-x-x--
D-----------------------3----------


Verse: Repeat
D--0-0-0-0--0-0-0-0--0-0-0-0--0-0-0-0---------------5/7-7-7---------------
B--3-3-3-3--1-1-1-1--1-1-1-1--3-3-3-3---------------5/7-7-7---------------
G--2-2-2-2--2-2-2-2--0-0-0-0--0-0-0-0---------------5/7-7-7---0--0--------
D--0-0-0-0--3-3-3-3--2-2-2-2--0-0-0-0-----3--5-5--------------2--0--0--3--
A--------------------3-3-3-3--2-2-2-2-----3--5-5--------------3--2--0--3--
D-----------------------------------------3--5-5-----------------------3--

D-----------5/7-7-7---------------------------
B-----------5/7-7-7---------------------------
G-----------5/7-7-7---0--0--------------------
D--3--5-5-------------2--0--0--3--------------
A--3--5-5-------------3--2--0--3--------------
D--3--5-5----------------------3--------------


Bridge/ Chorus thingy

Pa sent me money... 
     C                          G            D 
D--0-0-0-0-0-0-0-0--3-3-3-3--2-2-2-2--
B--1-1-1-1-1-1-1-1--3-3-3-3--3-3-3-3--
G--0-0-0-0-0-0-0-0--0-0-0-0--2-2-2-2--
D--2-2-2-2-2-2-2-2--0-0-0-0--0-0-0-0--
A--3-3-3-3-3-3-3-3--2-2-2-2-----------
D-------------------3-3-3-3-----------



Solo:
D--0-0-0-0-0-0-0-0-0-0-0-0-0-0-0-0-0-0-0-0-0-0-0-0-0-0-0-0-0--0--0--
B--3-3-3-3-3-3-3-3-3-3-3-3-3-3-3-3-3-3-3-3-3-3-3-3-3-3-3-3-3--1--0--
G--2-2-2-2-2-2-2-0-0-0-0-0-0-0-0-0-0-0-0-0-0-0-0-0-0-0-0-0-0--0--0--
D--------------------------------2-2-2-2-2-2-2-0-0-0-0-0-0-0--------
A--------------------------------3-3-3-3-3-3-3-2-2-2-2-2-2-2--------
D-------------------------------------------------------------------

Solo: continued; Repeat from starting of solo. 
D-----------5/7-7-7--------------------
B-----------5/7-7-7--------------------
G-----------5/7-7-7---0--0-------------
D--3--5-5-------------2--0--0--3-------
A--3--5-5-------------3--2--0--3-------
D--3--5-5----------------------3-------


End On:
D--5--7--5--7---
B--5--7--5--7---
G--5--7--5--7---
D--5--7--5--7---
A---------------
D---------------
            
Submit corrections

comments powered by Disqus
↑ Back to top | Neil Young Tabs for Cinnamon Girl. Lyrics for acoustic guitar and electric guitar. Tablatures and chords are parodies/interpretations of the original songs. You may use it for private study, scholarship, research or language learning purposes only