» » »

Cinnamon Girl Bass tabs (ver.2)

Artists:  A B C D E F G H I J K L M N O P Q R S T U V W X Y Z # 

Cinnamon Girl Bass tabs (ver.2)

Neil Young
Rating:
4/5 (2 votes)

Hard to play? Try these video lessons and learn fast.
                
                            CINNAMON GIRL (Bassline)
                    As recorded by Neil Young and Crazy Horse
              (From the 1969 Album EVERBODY KNOWS THIS IS NOWHERE)

Music by Neil Young

Gtr I (E A D G)

 Intro--play twice
  Q=102
  C D                N.C.  F5    G5    C D                N.C.  F5
 4/4
||------------------|-----------------|------------------|----------------||
||------------------|-----------------|------------------|----------------||
||-3-5-3-5-(5)-3-5--|-3-2-0-----------|-3-5-3-5-(5)-3-5--|-3-2-0----------||
||------------------|-------1-(1)-3---|------------------|-------1-(1)----||

 Verse
  $
  D5              Am7add4         Csus2           G5
|---------------|---------------|---------------|---------------|
|---------------|---------------|---------------|---------------|
|-5-5--5------5-|---------------|-3-3----3-3----|------5------5-|
|--------5-5----|-5-5--0-5-5--0-|------3------3-|-3-3----3-3----|


  N.C.                  Am7         D5              Am7add4
|---------------|-----------------|---------------|---------------|
|---------------|-----------------|---------------|---------------|
|-----0-3-5--5--|-3-2-3-0-(0)---3-|-5-5--3------5-|---------------|
|-1-3-----------|-----------------|--------5-5----|-5-5--0-5-5--0-|


  Csus2           G5              N.C.                  Am7
|---------------|---------------|---------------|-----------------||
|---------------|---------------|---------------|-----------------||
|-3-3----3-3----|------5------5-|-----0-3-5--5--|-3-2-3-0-(0)---3-||
|------3------3-|-3-3----3-3----|-1-3-----------|-----------------||


 Repeat Intro and Verse

 Repeat Intro

 Bridge
  Csus2                                          Gm7
|--------------|---------------|---------------|---------------|
|--------------|---------------|---------------|---------------|
|-3---0-0-0--3-|-3---0-0-0-0-3-|-3---0-0-0-3-5-|---------3-5---|
|--------------|---------------|---------------|-3---3-3-----1-|


                   Am7add4
|----------------|---------------|------------------||
|----------------|---------------|------------------||
|----------5-5-5-|-0-0-----------|-0-0----------0-0-||
|-3-3--1-1-------|------0-0-0--3-|------3-(3)-0-----||
|----------------|---------------|------------------||


 Last Verse
  D5              Am7add4         Csus2           G5
|---------------|---------------|---------------|---------------|
|---------------|---------------|---------------|---------------|
|-5-5--5------5-|---------------|-3-3----3-3----|------5------5-|
|--------5-5----|-5-5--0-5-5--0-|------3------3-|-3-3----3-3----|


  N.C.                  Am7         D5              Am7add4
|---------------|-----------------|---------------|---------------|
|---------------|-----------------|---------------|---------------|
|-----0-3-5--5--|-3-2-3-0-(0)---3-|-5-5--3------5-|---------------|
|-1-3-----------|-----------------|--------5-5----|-5-5--0-5-5--0-|


  Csus2           G5              N.C.                  Am7
|---------------|---------------|---------------|-----------------|
|---------------|---------------|---------------|-----------------|
|-3-3----3-3----|------5------5-|-----0-3-5--5--|-3-2-3-0-(0)---3-|
|------3------3-|-3-3----3-3----|-1-3-----------|-----------------|

 Outro
 D5
|----------------*|
|----------------*|
|-3-5-3-5-(5)----*|
|----------------*|


****************************************************************************
****************************************************************************
            
Hard to play? Try these video lessons and learn fast. | Correct




comments powered by Disqus
↑ Back to top | Tablatures and chords are parodies/interpretations of the original songs. You may use it for private study, scholarship, research or language learning purposes only