» » »

Neil Young, Cinnamon Girl Bass tabs (ver.1)

Artists:  A B C D E F G H I J K L M N O P Q R S T U V W X Y Z # 

Cinnamon Girl Bass tabs (ver.1)

Neil Young Tabs
Rating:
5/5 (4 votes)
Cinnamon Girl lessons Tabs too difficult? Try these video lessons and learn fast
                -------------------------------------------------------------------------------
-------------------------------------------------------------------------------


Tuning: Standard

INTRO

G|----------------------------------------------------------|
D|----------------------------------------------------------|
A|--3-5-3-5---3-5---3-2-0-----3H5-5-5--3H5-5-5-3-2-0--------|
E|------------------------1-3------------------------1-3----|

VERSE/OUTRO

G|-----------------------------------------------------------|
D|-----7--------------7--7----------5---------------5--5-----|
A|-5-5---5-5-------7-----------3-3-----3-3------5------------|
E|------------5-5--------------------------3-3---------------|

G|--------------------------|
D|--------------------------|
A|------0-3-5-5-5-5-3-2-3-0-|
E|--1-3---------------------|

BRIDGE

G|-----------------------------------------------------------------|
D|-----------------------------------------------------------------|
A|-3-3-3-3-3-3-3-3-3-3-3-3-3-3-3-3---------------------------------|
E|---------------------------------3-3-3-3-3-3-3-3-5-5-5-5-5-5-5-5-|

END

G|--------------------------|
D|--------------------------|
A|-3-3-5-5-5-LET RING-------|
E|--------------------------|

THEN NO BASS

THAT'S ALL      ----PLEASE TAB MORE NEIL YOUNG----
            
Submit corrections

comments powered by Disqus
↑ Back to top | Neil Young Bass for Cinnamon Girl. Lyrics for acoustic guitar and electric guitar. Tablatures and chords are parodies/interpretations of the original songs. You may use it for private study, scholarship, research or language learning purposes only