» » »

The Needle And The Damage Done Tabs (ver.1)

Artists:  A B C D E F G H I J K L M N O P Q R S T U V W X Y Z # 

The Needle And The Damage Done Tabs (ver.1)

Neil Young
Rating:
0/5 (0 votes)

Hard to play? Try these video lessons and learn fast.
                this song is played on acoustic guitar,finger-picked, and standard tuning
listen to the song and you'll figure it out
enjoy!

---2---0---------------0---------------0---------------0---------
-----------3---3---3-------3---3---3-------3---3---3-------3---3-
-0---0---0---0---------------------------------------------------
-----------------3---3---3---3---2---2---2---2---1---1---1---1---

---0-----0---0-----0---0---0---0---0---0---0---0---0---0---0---0---0-
-----------0---0h2---3---2---0-------2---------------1---------------
-----0h2-------------------------2-------2---------------2-----------
-3-------------------------------------------2---0-----------2---0---

some parts of the song this riff is played:-----0-----0---
                                           ---------------
                                           ---------------
                                           -------0h2---0-
                                           -0h2-----------
                                           ---------------0
            
Hard to play? Try these video lessons and learn fast. | Correct




comments powered by Disqus
↑ Back to top | Tablatures and chords are parodies/interpretations of the original songs. You may use it for private study, scholarship, research or language learning purposes only