» » »

Map Of Your Head Tabs (ver.3)

Artists:  A B C D E F G H I J K L M N O P Q R S T U V W X Y Z # 

Map Of Your Head Tabs (ver.3)

Muse
Rating:
0/5 (0 votes)

Hard to play? Try these video lessons and learn fast.
                Lead Guitar Tab
Standard tuning
i have seen some interesting tabs for this 
but i promise this is right

|---9---9-------------5--5--7---------------
|---10----10---10-----7--6------------------
|---9--------9--------7--7------------------ x2.
|------------------0------------------------
|-0-----------------------------------------
|-------------------------------------------

|---9---9------------0-------------2--2----------5--5--7-
|---10----10---10----1--1----------2----2---2----7--6----
|---9--------9-------2----2---2----2------2------7--7---- x1.
|--------------------2------2------4-----------0---------
|-0--------------------------------4---------------------
|------------------0-------------2-2---------------------

thanks to marian budos for showing me the third chord
and of course to MUSE for being the legends they are
            
Hard to play? Try these video lessons and learn fast. | Correct




comments powered by Disqus
↑ Back to top | Tablatures and chords are parodies/interpretations of the original songs. You may use it for private study, scholarship, research or language learning purposes only