» » »

Map Of Your Head Bass tabs (ver.1)

Artists:  A B C D E F G H I J K L M N O P Q R S T U V W X Y Z # 

Map Of Your Head Bass tabs (ver.1)

Muse
Rating:
0/5 (0 votes)

Tabs too difficult? Try these video lessons and learn fast.
                -------------------------------------------------------------------------------
			 Map of Your Head- Muse
-------------------------------------------------------------------------------


Tuning: Drop D


Chorus
G|--------------------------------------------------------------------------|
D|------------------------------------------------------------------------O-|
A|--0-0--0-0--0-0--0-0--0-0-2-2-------------------------------------------O-|
D|------------------------------4-4-0-0-------------------------------------|

Bridge (Check for Timing)
G|--------------------------------------------------------------------------|
D|--------------------------------------------------------------------------|
A|--0-0--0-0--0-0--------0-0--0-0-------------------------------------------|
D|------------------4-4------------4-4--------------------------------------|


Outro
G|--------------------------------------------------------------------------|
D|--------------------------------------------------------------------------|
A|--0-0--0-0--0-0--0-0-2-2--------------------------------------------------|
D|-------------------------4-4-0-0------------------------------------------|


				Song Order
Chorus x2
Chorus x2
Bridge 
Chorus x2
Outro x3
            
Tabs too difficult? Try these video lessons and learn fast.




comments powered by Disqus
↑ Back to top | Tablatures and chords are parodies/interpretations of the original songs. You may use it for private study, scholarship, research or language learning purposes only