» » »

Muse, Map Of Your Head Tabs (ver.1)

Artists:  A B C D E F G H I J K L M N O P Q R S T U V W X Y Z # 

Map Of Your Head Tabs (ver.1)

Muse Tabs
 Rating:
4/5 (4 votes)
Map Of Your Head lessons Tabs too difficult? Try these video lessons and learn fast
1
                Muse, Map Of Your Head.
MUSE
MAP OF YOUR HEAD


Standard Tuning

This is such a cool song and you can find it
On the New Born single's 2nd CD along with a
Live version of Plug-In Baby (also cool).
I knew no-one would tab a measly B-side so i
Went ahead and did it for those of you who
Appreciate the non-album Muse songs like me.

Intro:



Verse/Chorus:

  [A]                 [D]
|--------0-------------2-1-2--|
|-------2---2----------3-3-3--|
|------2------2--------2-2-2--|
|-----2---------2-0-0---------|
|--0--------------------------|
|-----------------------------| (x2)

  [A]                [E]              [C]                [D]
|------0--0-0---------------0-0------------0-0-0----------2-1-2-|
|-----2-------2-----------0-----0---------1------1--------3-3-3-|
|----2----------2--------1--------1------0---------0------2-2-2-|
|---2-------------2-0---2-----------2---2------------2-0--------|
|--0-------------------2---------------3------------------------|
|---------------------0---------------3-------------------------| (x1)

It's pretty much just messing around with the chords,
I simply did the way i sometimes play it but it really
Is best to just improvise and have some fun :)
And...i KNOW that the C chord is wrong, wrong, wrong
But it makes the closest sound to the actual chord used
And since i don't know what it is you'll have to use this
Or figure it out for yourself. Have fun.

 

Muse, Map Of Your Head.
  
MUSE
MAP OF YOUR HEAD


Standard Tuning

This is such a cool song and you can find it
On the New Born single's 2nd CD along with a
Live version of Plug-In Baby (also cool).
I knew no-one would tab a measly B-side so i
Went ahead and did it for those of you who
Appreciate the non-album Muse songs like me.

Intro:



Verse/Chorus:

  [A]                 [D]
|--------0-------------2-1-2--|
|-------2---2----------3-3-3--|
|------2------2--------2-2-2--|
|-----2---------2-0-0---------|
|--0--------------------------|
|-----------------------------| (x2)

  [A]                [E]              [C]                [D]
|------0--0-0---------------0-0------------0-0-0----------2-1-2-|
|-----2-------2-----------0-----0---------1------1--------3-3-3-|
|----2----------2--------1--------1------0---------0------2-2-2-|
|---2-------------2-0---2-----------2---2------------2-0--------|
|--0-------------------2---------------3------------------------|
|---------------------0---------------3-------------------------| (x1)

It's pretty much just messing around with the chords,
I simply did the way i sometimes play it but it really
Is best to just improvise and have some fun :)
And...i KNOW that the C chord is wrong, wrong, wrong
But it makes the closest sound to the actual chord used
And since i don't know what it is you'll have to use this
Or figure it out for yourself. Have fun.

 

Muse, Map Of Your Head.
  
MUSE
MAP OF YOUR HEAD


Standard Tuning

This is such a cool song and you can find it
On the New Born single's 2nd CD along with a
Live version of Plug-In Baby (also cool).
I knew no-one would tab a measly B-side so i
Went ahead and did it for those of you who
Appreciate the non-album Muse songs like me.

Intro:



Verse/Chorus:

  [A]                 [D]
|--------0-------------2-1-2--|
|-------2---2----------3-3-3--|
|------2------2--------2-2-2--|
|-----2---------2-0-0---------|
|--0--------------------------|
|-----------------------------| (x2)

  [A]                [E]              [C]                [D]
|------0--0-0---------------0-0------------0-0-0----------2-1-2-|
|-----2-------2-----------0-----0---------1------1--------3-3-3-|
|----2----------2--------1--------1------0---------0------2-2-2-|
|---2-------------2-0---2-----------2---2------------2-0--------|
|--0-------------------2---------------3------------------------|
|---------------------0---------------3-------------------------| (x1)

It's pretty much just messing around with the chords,
I simply did the way i sometimes play it but it really
Is best to just improvise and have some fun :)
And...i KNOW that the C chord is wrong, wrong, wrong
But it makes the closest sound to the actual chord used
And since i don't know what it is you'll have to use this
Or figure it out for yourself. Have fun.
            
Submit corrections

comments powered by Disqus
↑ Back to top | Muse Tabs for Map Of Your Head. Lyrics for acoustic guitar and electric guitar. 1 Tablatures and chords are parodies/interpretations of the original songs. You may use it for private study, scholarship, research or language learning purposes only