» » »

Muse, Map Of Your Head Bass tabs (ver.2)

Artists:  A B C D E F G H I J K L M N O P Q R S T U V W X Y Z # 

Map Of Your Head Bass tabs (ver.2)

Muse Tabs
Rating:
0/5 (0 votes)
Map Of Your Head lessons Tabs too difficult? Try these video lessons and learn fast
                
Now in Drop D, thanks for your input anon. Im sure its correct now. :)
Bass starts at 0:55

G|---------------------------------------------------|
D|---------------------------------------------------|
A|---------------------------------------------------|
D|77-77-77-77-77-99-44-0-0---------------------------|x2

Break, bass starts again at 1:57
G|---------------------------------------------------|
D|---------------------------------------------------|
A|---------------------------------------------------|
E|77-77-77-77-77-99-44-0-0---------------------------|x2

G|---------------------------------------------------|
D|---------------------------------------------------|
A|---------------------------------------------------|
E|77-77-77-44-77-77-77-44----------------------------|

G|---------------------------------------------------|
D|---------------------------------------------------|
A|---------------------------------------------------|
E|77-00-77-00-77-22-44-00----------------------------|x2
            

comments powered by Disqus
↑ Back to top | Muse Bass for Map Of Your Head. Lyrics for acoustic guitar and electric guitar. Tablatures and chords are parodies/interpretations of the original songs. You may use it for private study, scholarship, research or language learning purposes only