» » »

Liquid State Bass tabs (ver.3)

Artists:  A B C D E F G H I J K L M N O P Q R S T U V W X Y Z # 

Liquid State Bass tabs (ver.3)

Muse
Rating:
0/5 (0 votes)

Hard to play? Try these video lessons and learn fast.
                Intro/Outro
G|--------------------------------------------------------------------|
D|--------------------------------------------------------------------|
A|--2-3-0-0-0-0-0-0-2-3-0-0-0-0-0-0-2-3-0-0-3-6-0-0-6-5-3-6-5-3-6-5---| x2
D|--------------------------------------------------------------------|

Verse
G|--------------------------------------------------------------------|
D|--------------------------------------------------------------------|
A|--3-0-0-0-0-0-0-3-5-0-0-0-0-0-0-5-6-0-0-5-7-0-0-6-5-3-6-5-3-6-5-3---|
D|--------------------------------------------------------------------|

G|--------------------------------------------------------------------|
D|--------------------------------------------------------------------|
A|--3-------------3-5-------------5-7-----7-8-----6-5-3-6-5-3-6-5-3---|
D|----3-3-3-3-3-3-----3-3-3-3-3-3-----3-3-----3-3---------------------|

G|--------------------------------------------------------------------|
D|--------------------------------------------------------------------|
A|--5-------------5-7-------------7-8-----8-11-----6-5-3-6-5-3-6-5-3--|
D|----0-0-0-0-0-0-----0-0-0-0-0-0-----0-0------0-0--------------------|

G|--------------------------------------------------------------------|
D|--------------------------------------------------------------------| x3
A|--3-0-0-0-0-0-0-----------------------------------------------------|
D|----------------5-7-7-7-7-7-7-7-5-7-7-7-7-7-7-7-5-7-7-7-7-7-7-7-7---|

Chorus
G|-------------------------------------------------------------------|
D|--------------------------------------------------6-5-3-6-5-3-6-5--|
A|-------------------------------------------------------------------|
D|--3-0-0-0-0-0-0-0-3-0-0-0-0-0-0-0-3-0-0-0-5-0-0-0------------------|

G|-------------------------------------------------------------------|
D|--3---------------3---------------3-------5-------6-5-3-6-5-3-6-5--|
A|----1-1-1-1-1-1-1---1-1-1-1-1-1-1---1-1-1---1-1-1------------------|
D|-------------------------------------------------------------------|

G|-------------------------------------------------------------------|
D|--5---------------5---------------5-------7-------6-5-3-6-5-3-6-5--|
A|-------------------------------------------------------------------|
D|----5-5-5-5-5-5-5---5-5-5-5-5-5-5---5-5-5---5-5-5------------------|

G|-------------------------------------------------------------------|
D|-------------------------------------------------------------------|
A|--------------------------------------------------5---5---3-5-5----|
D|--3-0-0-0-0-0-0-0-3-0-0-0-0-0-0-0-3-0-0-0-5-0-0-0---0---0-------0--|

Those are all the parts you need for the song.
I've done a cover of this tab if you want to check it out:
            
Hard to play? Try these video lessons and learn fast. | Correct




comments powered by Disqus
↑ Back to top | Tablatures and chords are parodies/interpretations of the original songs. You may use it for private study, scholarship, research or language learning purposes only