» » »

Liquid State Bass tabs (ver.1)

Artists:  A B C D E F G H I J K L M N O P Q R S T U V W X Y Z # 

Liquid State Bass tabs (ver.1)

Muse
Rating:
0/5 (0 votes)

Tabs too difficult? Try these video lessons and learn fast.
                That's my first tab I've ever done..please rate..I'm not 100% sure because sometimes the
timing is quite tricky but I tried my best.

Liquid State

Tuning: D A D F

G|----------------------------------------------------------------------------|
D|9-10-------------9-10-------------9-10-----10-12-----13-12-10-13-12-10-13-12|
A|-----0-0-0-0-0-0------0-0-0-0-0-0------0-0-------0-0------------------------|
D|----------------------------------------------------------------------------|

G|----------------------------------------------------------------------------|
D|9-10-------------9-10-------------9-10-----10-12-----13-12-10-13-12-10-13-12|
A|-----0-0-0-0-0-0------0-0-0-0-0-0------0-0-------0-0------------------------|
D|----------------------------------------------------------------------------|

G|---------------------------------------------------------------------------------|
D|9-10-------------10-12-------------12-13-----13-14-----13-12-10-13-12-10-13-12-13|
A|-----0-0-0-0-0-0-------0-0-0-0-0-0-------0-0-------0-0---------------------------|
D|---------------------------------------------------------------------------------|

G|6-7-------------7-9-------------9-11-----11-12-----10-9-7-10-9-7-10-9-7--------|
D|----0-0-0-0-0-0-----0-0-0-0-0-0------0-0-------0-0-----------------------------|
A|-------------------------------------------------------------------------------|
D|-------------------------------------------------------------------------------|

G|----------------------------------------------------------------------------------|
D|10-12-0-0-0-0-0-0-12-14-0-0-0-0-0-0-14-15-0-0-15-18-0-0-13-12-10-13-12-10-13-12-13|
A|----------------------------------------------------------------------------------|
D|----------------------------------------------------------------------------------|

G|-------------------------------------------------------------------------------|
D|9-10-------------5-7-------------5-7-------------5-7---------------------------|
A|-----0-0-0-0-0-0-----0-0-0-0-0-0-----0-0-0-0-0-0-----0-12-12-12-12-12----------|
D|-------------------------------------------------------------------------------|

G|---------------------------------------------------------------------------------|
D|9-10-------------10-12-------------12-13-----13-14-----13-12-10-13-12-10-13-12-13|
A|-----0-0-0-0-0-0-------0-0-0-0-0-0-------0-0-------0-0---------------------------|
D|---------------------------------------------------------------------------------|

G|6-7-------------7-9-------------9-11-----11-12-----10-9-7-10-9-7-10-9-7-10------|
D|----0-0-0-0-0-0-----0-0-0-0-0-0------0-0-------0-0------------------------------|
A|--------------------------------------------------------------------------------|
D|--------------------------------------------------------------------------------|
                                                                                -        
                       Verse I
G|----------------------------------------------------------------------------------|
D|10-12-0-0-0-0-0-0-12-14-0-0-0-0-0-0-14-15-0-0-15-18-0-0-13-12-10-13-12-10-13-12-13|
A|----------------------------------------------------------------------------------|
D|----------------------------------------------------------------------------------|

G|-----------------------------------------------------------------------|
D|9-10-------------5-7-------------5-7-------------5-7-------------------|
A|-----0-0-0-0-0-0-----0-0-0-0-0-0-----0-0-0-0-0-0-----0-12-12-12-12-12--|
D|-----------------------------------------------------------------------|
-------------------------------------------------------------------------|

G|---------------------------------------------------------------------------------|
D|9-10-------------10-12-------------12-13-----13-14-----13-12-10-13-12-10-13-12-13|
A|-----0-0-0-0-0-0-------0-0-0-0-0-0-------0-0-------0-0---------------------------|
D|---------------------------------------------------------------------------------|

G|6-7-------------7-9-------------9-11-----11-12-----10-9-7-10-9-7-10-9-7-10-----|
D|----0-0-0-0-0-0-----0-0-0-0-0-0------0-0-------0-0-----------------------------|
A|-------------------------------------------------------------------------------|
D|-------------------------------------------------------------------------------|
                                                                                         
                       Verse II
G|----------------------------------------------------------------------------------|
D|10-12-0-0-0-0-0-0-12-14-0-0-0-0-0-0-14-15-0-0-15-18-0-0-13-12-10-13-12-10-13-12-13|
A|----------------------------------------------------------------------------------|
D|----------------------------------------------------------------------------------|

G|-------------------------------------------------------------------------------|
D|9-10-------------5-7-------------5-7-------------5-7---------5-----------------|
A|-----0-0-0-0-0-0-----0-0-0-0-0-0-----0-0-0-0-0-0-----0-0-0-0---7-0-------------|
D|-------------------------------------------------------------------------------|


G|-------------------------------------------------------------------|
D|-----------------------------------------------6-5---6-5-----------|
A|3-5-------------3-5-------------3-5-----5-7--------8-----8-6-5-----|
D|----0-0-0-0-0-0-----0-0-0-0-0-0-----0-0-----0-0--------------------|

G|-------------------------------------------------------------------------------|
D|----------------------------------------------------6-5---6-5------------------|
A|1-1-1-1-1-1-1-1-3-1-1-1-1-1-1-1-1-5-1-1-1-1-1-1-1-1-----8-----8-6-5------------|
D|-------------------------------------------------------------------------------|
                                                                                         
                       Chorus
G|-------------------------------------------------------------------------------|
D|----------------------------------------------------6-5---6-5------------------|
A|----------------3-----------------3---------------------8-----8-6-5------------|
D|5-5-5-5-5-5-5-5---5-5-5-5-5-5-5-5---5-5-5-5-5-5-5-5----------------------------|

G|-----------------------------------------------------------------|
D|-----------------------------------------------------------------|
A|3-5-------------3-5-------------3-5-------------3-5--------------|
D|----0-0-0-0-0-0-----0-0-0-0-0-0-----0-0-0-0-0-0-----0-0-0-0-0-0--|

G|---------------------------------------------------------------------------------|
D|9-10-------------10-12-------------12-13-----13-14-----13-12-10-13-12-10-13-12-13|
A|-----0-0-0-0-0-0-------0-0-0-0-0-0-------0-0-------0-0---------------------------|
D|---------------------------------------------------------------------------------|

G|6-7-------------7-9-------------9-11-----11-12-----10-9-7-10-9-7-10-9-7-10-----|
D|----0-0-0-0-0-0-----0-0-0-0-0-0------0-0-------0-0-----------------------------|
A|-------------------------------------------------------------------------------|
D|-------------------------------------------------------------------------------|

G|----------------------------------------------------------------------------------|
D|10-12-0-0-0-0-0-0-12-14-0-0-0-0-0-0-14-15-0-0-15-18-0-0-13-12-10-13-12-10-13-12-13|
A|----------------------------------------------------------------------------------|
D|----------------------------------------------------------------------------------|

G|-------------------------------------------------------------------------------|
D|9-10-------------9-10-------------5-7-------------5-7--------------------------|
A|-----0-0-0-0-0-0------0-0-0-0-0-0-----0-0-0-0-0-0-----0-0-0-0-0-0--------------|
D|-------------------------------------------------------------------------------|


G|-------------------------------------------------------------------|
D|-----------------------------------------------6-5---6-5-----------|
A|3-5-------------3-5-------------3-5-----5-7--------8-----8-6-5-----|
D|----0-0-0-0-0-0-----0-0-0-0-0-0-----0-0-----0-0--------------------|

G|-------------------------------------------------------------------------------|
D|----------------------------------------------------6-5---6-5------------------|
A|1-1-1-1-1-1-1-1-3-1-1-1-1-1-1-1-1-3-1-1-5-1-1-1-1-1-----8-----8-6-5------------|
D|-------------------------------------------------------------------------------|

G|-------------------------------------------------------------------------------|
D|----------------------------------------------------6-5---6-5------------------|
A|----------------3-----------------3---------------------8-----8-6-5------------|
D|5-5-5-5-5-5-5-5---5-5-5-5-5-5-5-5---5-5-5-5-5-5-5-5----------------------------|

G|-----------------------------------------------------------------|
D|-----------------------------------------------------------------|
A|3-5-------------3-5-------------3-5-------------3-5--------------|
D|----0-0-0-0-0-0-----0-0-0-0-0-0-----0-0-0-0-0-0-----0-0-0-0-0-0--|



G|-------------------------------------------------------------------------|
D|9-10-------------9-10-------------9-10-----10-12-----13-12-10-13-12-10-13|
A|-----0-0-0-0-0-0------0-0-0-0-0-0------0-0-------0-0---------------------|
D|-------------------------------------------------------------------------|


G|------------------------------------------------------------------------------------|
D|9-10-------------9-10-------------9-10-----10-12-----13-12-10-13-12-10-13-12-10-----|
A|-----0-0-0-0-0-0------0-0-0-0-0-0------0-0-------0-0----------------------------13-0|
D|------------------------------------------------------------------------------------|
            
Tabs too difficult? Try these video lessons and learn fast.




comments powered by Disqus
↑ Back to top | Tablatures and chords are parodies/interpretations of the original songs. You may use it for private study, scholarship, research or language learning purposes only