>
 >
Liquid State 2

Liquid State 2 Bass Tabs

Muse - Liquid State 2 chords, tabs, tablatures, lyrics

Guitar lessons | Add/correct | Request | Top 50 tabs Artists:  A B C D E F G H I J K L M N O P Q R S T U V W X Y Z 0-9

Liquid State 2 Bass Tabs – Muse

CD, Sheet music, Poster

Do you like Liquid State 2? Share with your friends now
Bass TabsBass Tabs v2Bass Tabs v3Bass Tabs v4Bass Tabs v5ChordsTabsUkulele

INTRO
x2
G|----------------------------------------------------------------|
D|----------------------------------------------------------------|
A|2-3-0-0-0-0-0-0-2-3-0-0-0-0-0-0-2-3-0-0-3-6-0-0-6-5-3-6-5-3-6-5-|
D|----------------------------------------------------------------|


VERSE
x2
G|--------------------------------------------------------------------|
D|--------------------------------------------------------------------|
A|2-3-0-0-0-0-0-0-0-3-5-0-0-0-0-0-0-5-6-0-0-5-7-0-0-6-5-3-6-5-3-6-5-3-|
D|--------------------------------------------------------------------|

G|------------------------------------------------------------------|
D|------------------------------------------------------------------|
A|3-------------3-5-------------5-7------7-8------6-5-3-6-5-3-6-5-3-|
D|--3-3-3-3-3-3-----3-3-3-3-3-3-----3-3------3-3--------------------|

G|--------------------------------------------------------------------|
D|--------------------------------------------------------------------|
A|5---------------5-7-------------7-8-------8-11------6-5-3-6-5-3-6-5-|
D|--0-0-0-0-0-0-0------0-0-0-0-0-0------0-0-------0-0-----------------|

G|----------------------------------------------------------------------------|
D|-----------------5-7---------------5-7-----------------5-7------------------|
A|---0-0-0-0-0-0-0-----0-0-0-0-0-0-0------0-0-0-0-0-0-0-------0-0-0-0-0-0-0-0-|
D|5---------------------------------------------------------------------------|


CHORUS ONE
G|-----------------------------------------------------------------------------|
D|-----------------------------------------5-6---------5-7-----6-5-3-6-5-3-6-5-|
A|3-5-----------------3-5------------------------------------------------------|
D|----0-0-0-0-0-0-0-0-----0-0-0-0-0-0-0-0-------0-0--------0-0-----------------|

G|--------------------------------------------------------------------------------|
D|2-3----------------3-5------------------7-8--------8-11---------6-5-3-6-5-3-6-5-|
A|----1-1-1-1-1-1-1-1----1-1-1-1-1-1-1-1------------------------------------------|
D|--------------------------------------------8-8------------8-8------------------|

G|------------------------------------------------------6-----------------------|
D|3-5-------------------5-7-----------------7-8------8----------6-5-3-6-5-3-6-5-|
A|------------------------------------------------------------------------------|
D|-----5-5-5-5-5-5-5-5------5-5-5-5-5-5-5-5------5-5-------5-5------------------|

G|---------------------------------------------------------------------------|
D|---------------------------------------------------------------------------|
A|3-5-----------------3-5-----------------3-5--------------------5--5--3-5-5-|
D|----0-0-0-0-0-0-0-0-----0-0-0-0-0-0-0-0----0-0-0-0-0-0-0-0---0---0--0------|


REPEAT VERSE


CHORUS TWO
G|-------------------------------------------------------------------------------|
D|-----------------------------------------5-6---------5-7-------6-5-3-6-5-3-6-5-|
A|3-5-----------------3-5--------------------------------------------------------|
D|----0-0-0-0-0-0-0-0-----0-0-0-0-0-0-0-0-------0-0-------0-0--------------------|

G|-------------------------------------------------------------------------------|
D|2-3-------------------3-5----------------7-8--------8-11-------6-5-3-6-5-3-6-5-|
A|------1-1-1-1-1-1-1-1----1-1-1-1-1-1-1-1---------------------------------------|
D|---------------------------------------------8-8----------8-8------------------|

G|-----------------------------------------------------6--------------------|
D|3-5------------------5-7------------------7-8------8------6-5-3-6-5-3-6-5-|
A|--------------------------------------------------------------------------|
D|-----5-5-5-5-5-5-5-5------5-5-5-5-5-5-5-5------5-5----5-5-----------------|

G|--------------------------------------------------------------------------------|
D|--------------------------------------------------------------------------------|
A|3-5-----------------3-5----------------3-5-----------------3-5------------------|
D|----0-0-0-0-0-0-0-0-----0-0-0-0-0-0-0-0----0-0-0-0-0-0-0-0----0-0-0-0-0-0-0-20\-|


OUTRO
G|------------------------------------------------------------|
D|------------------------------------------------------------|
A|0-0-0-0-0-0-2-3-0-0-0-0-0-0-2-3-0-0-3-6-0-0-6-5-3-6-5-3-6-5-|
D|------------------------------------------------------------|

G|----------------------------------------------------------------------|
D|----------------------------------------------------------------------|
A|2-3-0-0-0-0-0-0-2-3-0-0-0-0-0-0-2-3-0-0-3-6-0-0-6-5-3-6-5-3-6-5 2-3-0-|
D|----------------------------------------------------------------------|


| /  slide up
| \  slide down
| h  hammer-on
| p  pull-off
| ~  vibrato
| +  harmonic
| x  Mute note





Comments


Popular Muse tabs & chords
Muscle Museum Bass Tabs
Big Freeze Chords
Exogenesis Symphony Part 2 Cross-pollination Chords
Unintended Chords
A Crying Shame Intro 1 Tabs
Dead Star 4 Tabs
Deadstar Live Tabs
Fillip 1 Tabs
Map Of Your Head Tabs
Muscle Museum 3 Tabs


Song lyrics



↑ Back to top | Tablatures and chords are parodies/interpretations of the original songs. You may use it for private study, scholarship, research or language learning purposes only
© 2014 AZChords.com Contact us | Privacy policy | DMCA | Add/correct tabs | Request tabs | Top 50 tabs