» » »

Muse, Liquid State Tabs (ver.1)

Artists:  A B C D E F G H I J K L M N O P Q R S T U V W X Y Z # 

Liquid State Tabs (ver.1)

Muse Tabs
Rating:
0/5 (0 votes)
Liquid State lessons Tabs too difficult? Try these video lessons and learn fast
                Muse
The 2nd Law
2012

Drop D, and an octave down using a Whammy or such is recommended.

Use harmonics down around the 2nd fret at the start of the song.

These parts repeat throughout the verses.

e|----------------------------------------------------------------------------|
B|----------------------------------------------------------------------------|
G|----------------------------------------------------------------------------|
D|-9-10-------------9-10-------------9-10-----10-13-----13-12-9-13-12-9-13-12-|
A|------0-0-0-0-0-0------0-0-0-0-0-0------0-0-------0-0-----------------------|
D|----------------------------------------------------------------------------|


e|---------------------------------------------------------------------------|
B|---------------------------------------------------------------------------|
G|------------------------------------7-9-----9-10---------------------------|
D|-9-10-------------10-12------------------------------13-12-9-13-12-9-13-12-|
A|------8-8-8-8-8-8-------8-8-8-8-8-8-----8-8------8-8-----------------------|
D|---------------------------------------------------------------------------|

e|-----------------------------------------------------------------------------------------------|
B|-----------------------------------------------------------------------------------------------|
G|----------------------------------------------------------------13-----------------------------|
D|-10-12-------------------12-14-------------------14-15-------15----------13-12-9-13-12-9-13-12-|
A|-----------------------------------------------------------------------------------------------|
D|-------12-12-12-12-12-12-------12-12-12-12-12-12-------12-12-------12-12-----------------------|

e|-----------------------------------------------------------------------|
B|-----------------------------------------------------------------------|
G|-----------------------------------------------------------------------|
D|-----------------------------------------------------------------------|
A|-10-12-0-0-0-0-0-0-10-12-0-0-0-0-0-0-10-12-0-0-0-0-0-0-10-12-0-0-0-----|
D|-------------------------------------------------------------------14\-|

CHORUS

e|-----------------------------------------------------------------------------------------|
B|-----------------------------------------------------------------------------------------|
G|-----------------------------------------------------------------------------------------|
D|-----------------------------------------------------------------------------------------|
A|-7-8-------------------8-10-------------------10-11-------11-12-------11-10-9-11-10-9-10-|
D|-----12-12-12-12-12-12------12-12-12-12-12-12-------12-12-------12-12--------------------|

e|---------------------------------------------------------------------------|
B|---------------------------------------------------------------------------|
G|---------------------------------------------------------------------------|
D|---------------------------------------------------------------------------|
A|-7-8-------------8-10-------------10-12-----12-13-------11-10-9-11-10-9-10-|
D|-----8-8-8-8-8-8------8-8-8-8-8-8-------8-8-------8-8-8--------------------|

e|------------------------------------------------------------------------|
B|------------------------------------------------------------------------|
G|--------------------------------------------6---------------------------|
D|------------------5-7-------------7-8-----8-----------------------------|
A|-8-10---------------------------------------------10-11-10-9-11-10-9-10-|
D|------5-5-5-5-5-5-----5-5-5-5-5-5-----5-5-----5-5-----------------------|

e|-------------------------------------------------------------------|
B|-------------------------------------------------------------------|
G|-------------------------------------------------------------------|
D|-------------------------------------------------------------------|
A|-------------------------------------------------------------------|
D|-10-12-0-0-0-0-0-0-10-12-0-0-0-0-0-0-10-12-0-0-0-0-0-0-10-12-0-0-0-|


Play it a few times to work out the order and where bits fit and you should be away! :D
            

comments powered by Disqus
↑ Back to top | Muse Tabs for Liquid State. Lyrics for acoustic guitar and electric guitar. Tablatures and chords are parodies/interpretations of the original songs. You may use it for private study, scholarship, research or language learning purposes only