>
 >
Invincible 3

Invincible 3 Bass Tabs

Muse - Invincible 3 chords, tabs, tablatures, lyrics

Guitar lessons | Add/correct | Request | Top 50 tabs Artists:  A B C D E F G H I J K L M N O P Q R S T U V W X Y Z 0-9

Invincible 3 Bass Tabs – Muse

CD, Sheet music, Poster

Do you like Invincible 3? Share with your friends now
Bass TabsBass Tabs v2Bass Tabs v3Bass Tabs v4ChordsTabsTabs v2Tabs v3Tabs v4Tabs v5Tabs v6Tabs v7Ukulele
IMPORTANT: Drop the D string down to C.
Anyone who thinks this is wrong needs to watch HAARP.

Anyway, pretty easy but really fun. Enjoy!


Intro
G|----------------------------|
C|----------------------------|
A|-33-33--33-33--33-33--33-33-| x3
E|----------------------------|

Verse

G|--------------------------------------------------------|
C|--------------------------------------------------------|
A|-33-33--33-33--33-33--33-33--88-88--88-88--88-88--88-88-|
E|--------------------------------------------------------|

G|--------------------------------------------------------------------------|
C|--------------------------------------------------------------------------|
A|-55-55--55-55--1010-1010--1010-1010--77-77--77-77--1212-1212--1212--12-12-| (10s & 
not 1-0 and 1-2)
E|--------------------------------------------------------------------------|

G|----------------------------------------------------------------|
C|----------------------------------------------------------------|
A|-88-88--88-88--1010-1010--1010-1010--33-33--33-33--33-33--33-33-|
E|----------------------------------------------------------------|

G|--------------------------------------------------------|
C|--------------------------------------------------------|
A|-33-33--33-33--33-33--55-57--88-88--88-88--88-88--88-87-|
E|--------------------------------------------------------|

G|---------------------------------------------------------------------------|
C|---------------------------------------------------------------------------|
A|-55-55--55-58--1010-1010--1010-1010--8-77-77--77-711--1212-1212--1212-1210-|
E|---------------------------------------------------------------------------|

G|---------------------------------------------------------|
C|---------------------------------------------------------|
A|-88888--88885/----------------33333--33333--33333--33333-|
E|----------------33333--33333-----------------------------|

Chorus

G|---------------------------------------------------------------|
C|---------------------------------------------------------------|
A|-88-88--88-88--1010-1010--1010-1010--33-33--33-33-88-88--88-88-|
E|---------------------------------------------------------------|

G|------------------------------------------------------------------------|
C|------------------------------------------------------------------------|
A|-55-55--55-55--1010-1010--1010-1010--77-77--77-77--1212-1212--1212-1212-|
E|------------------------------------------------------------------------|

G|------------------------------------|
C|------------------------------------|
A|-88-88--88-88--1010-1010--1010-1010-|
E|------------------------------------|

Re-intro

G|----------------------------|
C|----------------------------|
A|-33-33--33-33--33-33--33-33-| x3
E|----------------------------|

Verse 2

G|------------------------------------------|
C|------------------------------------------|
A|--3-3-3-3-3-3-5-7-8-8-8-8-8-8-8-7-5-5-5-8-|
E|------------------------------------------|

G|---------------------------------------------------|
C|---------------------------------------------------|
A|--10-10-10-8-7-7-7-11-12-12-12-10-8-8-8-5/---------|
E|-------------------------------------------3-3-3-3-|

G|-----------------|
C|-----------------|
A|-3-3-3-3-3-3-3-3-|
E|-----------------|

Chorus 2

G|---------------------------------------------------------|
C|---------------------------------------------------------|
A|-----------------3-3-3-3---------5-5-5-5-----------------|
E|-1-1-1-1-3-3-3-3---------1-1-1-1---------3-3-3-3-4-4-4-4-|

G|-------------------------|
C|-------------------------|
A|-------------------------|
E|-5-5-5-5-1-1-1-1-3-3-3-3-|

Pre-solo (Overdrive on)

G|--------------------------------------------------------------|
C|-4-0-0-12-0-0-10-0-0-8-0-0-7-0-10-0-8-0-7-0-0-5-0-0-8-0-7-0-5-|
A|--------------------------------------------------------------| x4
E|--------------------------------------------------------------|

Solo

G|--------------------------------------------------------|
C|--------------------------------------------------------|
A|-33333--33333--33333--55557--88888--88888--88888--88887-|
E|--------------------------------------------------------|

G|--------------------------------------------------------|
C|---------------55555--5555--------------6--77777--77775-|
A|-55555--55558-------------8--77777--7777----------------|
E|--------------------------------------------------------|

G|---------------------------------------------------------|
C|---------------------------------------------------------|
A|-88888--88885/----------------33-33--33-33--33-33--33-33-|
E|----------------33333--33333-----------------------------|

Chorus 3

G|----------------------------------------------------------------|
C|----------------------------------------------------------------|
A|-------------------33333333----------55555555-------------------|
E|-11111111-33333333----------11111111----------33333333-44444444-|

G|----------------------------|
C|----------------------------|
A|----------------------------|
E|-55555555-11111111-33333333-|

Outro

G|----------------------------|
C|----------------------------|
A|-33-33--33-33--33-33--33-33-| x2
E|----------------------------|





Comments


Popular Muse tabs & chords
Apocalyse Please Chords
Bliss Drum Tabs
Dark Shines 3 Tabs
Dead Star (Solo Ver 2) Tabs
Falling With The Crowd Tabs
Muscle Museum 2 Tabs
Sunburn (Piano) Tabs
Sunburn 2 Tabs
Falling Away With You Ukulele
Map Of Your Head Ukulele


Song lyrics



↑ Back to top | Tablatures and chords are parodies/interpretations of the original songs. You may use it for private study, scholarship, research or language learning purposes only
© 2014 AZChords.com Contact us | Privacy policy | DMCA | Add/correct tabs | Request tabs | Top 50 tabs