» » »

Muse, Invincible Bass tabs (ver.1)

Artists:  A B C D E F G H I J K L M N O P Q R S T U V W X Y Z # 

Invincible Bass tabs (ver.1)

Muse Tabs
 Rating:
4/5 (4 votes)
Invincible lessons Tabs too difficult? Try these video lessons and learn fast
                
Song from the new Muse album. Pretty easy really

Intro  (bout 30s in)

A|-33333--33333--33333--33333----|
  <--------- x3 -----------------|

Verse (when vocals start)

G|---------------------------------------------------------|
D|---------------------------------------------------------|
A|-33333--33333--33333--33333--88888--88888--88888--88888--|
E|---------------------------------------------------------|

G|---------------------------------------------------------|
D|--------------55555--55555-----------------77777--77777--|
A|-55555--55555----------------77777--77777----------------|
E|---------------------------------------------------------|

G|---------------------------------------------------------|
D|-33333--33333--55555--55555------------------------------|
A|-----------------------------33333--33333--33333--33333--|
E|---------------------------------------------------------|

G|---------------------------------------------------------|
D|---------------------------------------------------------|
A|-33333--33333--33333--55557--88888--88888--88888--88887--|
E|---------------------------------------------------------|

G|---------------------------------------------------------|
D|---------------55555--5555--------------6--77777--77775--|
A|-55555--55558-------------8--77777--7777-----------------|
E|---------------------------------------------------------|

G|---------------------------------------------------------|
D|---------------------------------------------------------|
A|-88888--88885/----------------33333--33333--33333--33333-|
E|----------------33333--33333-----------------------------|

Chorus

G|---------------------------------------------------------|
D|-33333--33333--55555--55555----------------33333--33333--|
A|-----------------------------33333--33333----------------|
E|---------------------------------------------------------|

G|---------------------------------------------------------|
D|--------------55555--55555-----------------77777--77777--|
A|-55555--55555----------------77777--77777----------------|
E|---------------------------------------------------------|

G|----------------------------|-------------------------------|
D|-33333--33333--55555--55555-|-------------------------------|
A|----------------------------|-33333--33333--33333--33333----|
E|----------------------------|-------------------------------|
                               <--this part x3----------------|

Verse 2

G|-------------------------------------------|
D|-------------------------------------------|
A|--3-3-3-3-3-3-5-7-8-8-8-8-8-8-8-7-5-5-5-8--|
E|-------------------------------------------|

G|-------------------------------------------|
D|--5-5-5---------6-7-7-7-5------------------|
A|--------8-7-7-7-----------8-8-8-5/---------|
E|-----------------------------------3-3-3-3-|

G|-----------------|
D|-----------------|
A|-3-3-3-3-3-3-3-3-|
E|-----------------|

Chorus 2

G|---------------------------------------------------------|
D|---------------------------------------------------------|
A|-----------------3-3-3-3---------5-5-5-5-----------------|
E|-1-1-1-1-3-3-3-3---------1-1-1-1---------3-3-3-3-4-4-4-4-|

G|---------------------------|
D|---------------------------|
A|---------------------------|
E|-5-5-5-5-1-1-1-1-3-3-3-3---|

Riff (On with the overdrive)  x4

G|-------5-----3-----------------3-------------------------------------|
D|-2-----------------6-----5---------6-----5-----3-----6-----5---3-----|
A|---3-3---3-3---3-3---3-3---3-3---3---3-3---3-3---3-3---3-3---3---3---|
E|---------------------------------------------------------------------|

Solo (still with overdrive)

G|---------------------------------------------------------|
D|---------------------------------------------------------|
A|-33333--33333--33333--55557--88888--88888--88888--88887--|
E|---------------------------------------------------------|

G|---------------------------------------------------------|
D|---------------55555--5555--------------6--77777--77775--|
A|-55555--55558-------------8--77777--7777-----------------|
E|---------------------------------------------------------|

G|---------------------------------------------------------|
D|---------------------------------------------------------|
A|-88888--88885/----------------33-33--33-33--33-33--33-33-|
E|----------------33333--33333-----------------------------|

Chorus 3 (Switch overdrive off)

G|----------------------------------------------------------|
D|----------------------------------------------------------|
A|-----------------33333333--------55555555-----------------|
E|-1111111133333333--------11111111--------3333333344444444-|

G|---------------------------|
D|---------------------------|
A|---------------------------|
E|-555555551111111133333333--|

Outro x2

A|-33-33--33-33--33-33--33-33--|

That should be near enough perfect - Please rate
            
Submit corrections

comments powered by Disqus
↑ Back to top | Muse Bass for Invincible. Lyrics for acoustic guitar and electric guitar. Tablatures and chords are parodies/interpretations of the original songs. You may use it for private study, scholarship, research or language learning purposes only