» » »

Muse, Invincible Tabs (ver.1)

Artists:  A B C D E F G H I J K L M N O P Q R S T U V W X Y Z # 

Invincible Tabs (ver.1)

Muse Tabs
Rating:
0/5 (0 votes)
Invincible lessons Tabs too difficult? Try these video lessons and learn fast
                
First off, the credit for tabbing this song goes to Zeidrich, I just decided
it would be easier if people had this difference in tuning easily ready,
everything is the same except the A string is tuned 1.5 steps up to C, which
makes the solo much easier.

Tuning: G
        D
     A> C
        E 
        
Intro  (bout 30s in)

C|-00000--00000--00000--00000----|
  <--------- x3 -----------------|

Verse (when vocals start)

G|---------------------------------------------------------|
D|---------------------------------------------------------|
C|-00000--00000--00000--00000--44444--44444--44444--44444--|
E|---------------------------------------------------------|

G|---------------------------------------------------------|
D|--------------55555--55555-----------------77777--77777--|
C|-22222--22222----------------44444--44444----------------|
E|---------------------------------------------------------|

G|---------------------------------------------------------|
D|-33333--33333--55555--55555------------------------------|
C|-----------------------------00000--00000--00000--00000--|
E|---------------------------------------------------------|

G|---------------------------------------------------------|
D|---------------------------------------------------------|
C|-00000--00000--00000--22224--55555--55555--55555--55554--|
E|---------------------------------------------------------|

G|---------------------------------------------------------|
D|---------------55555--5555--------------6--77777--77775--|
C|-44444--44445-------------5--44444--4444-----------------|
E|---------------------------------------------------------|

G|---------------------------------------------------------|
D|---------------------------------------------------------|
C|-55555--55552/----------------00000--00000--00000--00000-|
E|----------------33333--33333-----------------------------|

Chorus

G|---------------------------------------------------------|
D|-33333--33333--55555--55555----------------33333--33333--|
C|-----------------------------00000--00000----------------|
E|---------------------------------------------------------|

G|---------------------------------------------------------|
D|--------------55555--55555-----------------77777--77777--|
C|-22222--22222----------------44444--44444----------------|
E|---------------------------------------------------------|

G|----------------------------|-------------------------------|
D|-33333--33333--55555--55555-|-------------------------------|
C|----------------------------|-00000--00000--00000--00000----|
E|----------------------------|-------------------------------|
                               <--this part x3----------------|

Verse 2

G|-------------------------------------------|
D|-------------------------------------------|
C|--0-0-0-0-0-0-2-4-5-5-5-5-5-5-5-4-2-2-2-5--|
E|-------------------------------------------|

G|-------------------------------------------|
D|--5-5-5---------6-7-7-7-5------------------|
C|--------5-4-4-4-----------5-5-5-2/---------|
E|-----------------------------------3-3-3-3-|

G|-----------------|
D|-----------------|
C|-0-0-0-0-0-0-0-0-|
E|-----------------|

Chorus 2

G|---------------------------------------------------------|
D|---------------------------------------------------------|
C|-----------------0-0-0-0---------2-2-2-2-----------------|
E|-1-1-1-1-3-3-3-3---------1-1-1-1---------3-3-3-3-4-4-4-4-|

G|---------------------------|
D|---------------------------|
C|---------------------------|
E|-5-5-5-5-1-1-1-1-3-3-3-3---|

Riff (On with the overdrive)  x4

G|------------------------------------------------------------------|
D|------------------------------------------------------------------|
C|-0-0-12-0-0-10-0-0-8-0-0-7-0-10-0-8-0-0-7-0-0-5-0-8-0-0-7-0-5-0-4-|
E|------------------------------------------------------------------|

Solo (still with overdrive)

G|---------------------------------------------------------|
D|---------------------------------------------------------|
C|-00000--00000--00000--22224--55555--55555--55555--55554--|
E|---------------------------------------------------------|

G|---------------------------------------------------------|
D|---------------55555--5555--------------6--77777--77775--|
C|-22222--22225-------------5--44444--4444-----------------|
E|---------------------------------------------------------|

G|---------------------------------------------------------|
D|---------------------------------------------------------|
C|-55555--55552/----------------00-00--00-00--00-00--00-00-|
E|----------------33333--33333-----------------------------|

Chorus 3 (Switch overdrive off)

G|----------------------------------------------------------|
D|----------------------------------------------------------|
C|-----------------00000000--------22222222-----------------|
E|-1111111133333333--------11111111--------3333333344444444-|

G|---------------------------|
D|---------------------------|
C|---------------------------|
E|-555555551111111133333333--|

Outro x2

C|-00-00--00-00--00-00--00-00--|
            
Submit corrections

comments powered by Disqus
↑ Back to top | Muse Tabs for Invincible. Lyrics for acoustic guitar and electric guitar. Tablatures and chords are parodies/interpretations of the original songs. You may use it for private study, scholarship, research or language learning purposes only