» » »

Invincible Bass tabs (ver.2)

Artists:  A B C D E F G H I J K L M N O P Q R S T U V W X Y Z # 

Invincible Bass tabs (ver.2)

Muse
Rating:
0/5 (0 votes)

Hard to play? Try these video lessons and learn fast.
                Artist : Muse





Before start playing you should "listen very carefully" to the music.
I only reaten the notes now you have to catch theritm. Is pretty easy!!


Intro

G|------------|----------------------------------|
D|------------|----------------------------------|
A|------------|--3--8--5-------------------------|
B|--00000000--|------------7--8--9----5---7--0---|


Verse

G|------------------------------------------------------------------------------------|
D|------------------------------------------------------------------------------------|
A|--3---5-7-8----8-7-5----5---5-8-10----10-8-7----7---11-12----12-10-8----8-7---------|
B|----------------------------------------------------------------------------7---0---|


Chorus

G|----------------------------------------------|
D|----------------------------------------------|
A|--8--10-----8---5-----------------------------|
B|---------12-------7--8--9--5--7----000000000--|


Verse 2

G|------------------------------------------------------------------------------------|
D|------------------------------------------------------------------------------------|
A|--3---5-7-8----8-7-5----5---5-8-10----10-8-7----7---11-12----12-10-8----8-7---------|
B|----------------------------------------------------------------------------7---0---|


Chorus 2

G|--------------------------------------------|
D|---------------------5----------------------|
A|--8--10-----8---5---5-5---------------------|
B|---------12--------7------8--9--5--7----12--|


Bass Interlude

G|---------------------------------------------------------------------------------|
D|---------------------------------------------------------------------------------|
A|---------------------------------------------------------------------------------|
B|--0-0-12-0-0-10-0-0-8-0-0-7-0-0-10-0-8-0-0-7-0-0-5-0-0-8-0-0-7-0-5-0-4-----------|

Verse 3

G|------------------------------------------------------------------------------------|
D|------------------------------------------------------------------------------------|
A|--3---5-7-8----8-7-5----5---5-8-10----10-8-7----7---11-12----12-10-8----8-7---------|
B|----------------------------------------------------------------------------7---0---|


Chorus 3

G|--------------------------------------|
D|--------------------------------------|
A|--8--10-----8---5---------------------|
B|---------12-------7--8--9--5--7----0--|


End

G|-------------------------------------|
D|-------------------------------------|
A|-------------------------------------|
B|---00-0-0--00--0-0--00-0-0--00-0-0---|


This is basicly the 1st tab but with some revisions...

A|--3---5-7-8----8-7-5----5---5-8-10----10-8-7----7---11-12----12-10-8----|
B|------------------------------------------------------------------------|

G|---------------|
D|---------------|
A|-8--7----------|
B|-------7---0---|

Chorus

G|--------------------------------------|
D|--------------------------------------|
A|--8--10-----8---5---------------------|
B|---------12-------7--4--9--5--7----0--|


Verse 2

G|------------------------------------------------------------------------|
D|------------------------------------------------------------------------|
A|--3---5-7-8----8-7-5----5---5-8-10----10-8-7----7---11-12----12-10-8----|
B|------------------------------------------------------------------------|

G|---------------|
D|---------------|
A|-8--7----------|
B|-------7---0---|


Chorus 2

G|--------------------------------------|
D|--------------------------------------|
A|--8--10-----8---5---------------------|
B|---------12-------7--4--9--5--7----0--|


Bass Interlude

G|-------------------------------------------------------------------------|
D|-------------------------------------------------------------------------|
A|-------------------------------------------------------------------------|
B|--0-0-12-0-0-10-0-0-8-0-0-7-0-0-10-0-8-0-0-7-0-0-5-0-0-8-0-0-7-0-5-0-4---|

Verse 3

G|------------------------------------------------------------------------|
D|------------------------------------------------------------------------|
A|--3---5-7-8----8-7-5----5---5-8-10----10-8-7----7---11-12----12-10-8----|
B|------------------------------------------------------------------------|

G|---------------|
D|---------------|
A|-8--7----------|
B|-------7---0---|


Chorus 3

G|--------------------------------------|
D|--------------------------------------|
A|--8--10-----8---5---------------------|
B|---------12-------7--4--9--5--7----0--|


End

G|----------------------|
D|----------------------|
A|----------------------|
B|---0----0-----0---0---|
            
Hard to play? Try these video lessons and learn fast. | Correct




comments powered by Disqus
↑ Back to top | Tablatures and chords are parodies/interpretations of the original songs. You may use it for private study, scholarship, research or language learning purposes only