» » »

Modest Mouse, Dramamine Tabs (ver.3)

Artists:  A B C D E F G H I J K L M N O P Q R S T U V W X Y Z # 

Dramamine Tabs (ver.3)

Modest Mouse Tabs
 Rating:
4/5 (4 votes)
Dramamine lessons Tabs too difficult? Try these video lessons and learn fast
                (Riff 1)
E---------------------------
B---------------------------
G---------------------------
D---5------4------2-----4---
A-7---7--5---5--3---3-------
E---------------------1-----
This part repeats through most of the song
Easiest way to do this is hold your index finger on D's String,
And your pinky on A, and with your middle finger, you can hit
the lowest E with it. 

(Riff 2)
(0:08)
<Repeat 6 times, on the 7th time, go to the next riff The.
The use of a wammy bar is good here.>
--------------------------------------------------------------
-12h13-12h13-12-----------------------------------------------
-----------------7h9-7h9-7--12h14-12h14-12---12h14-12h14-12---
--------------------------------------------------------------
--------------------------------------------------------------
--------------------------------------------------------------

(Riff 3)
(0:35.5)
--------------------------------------------------------------
--------------------------------------------------------------
-9-7-9-12-9-7-4-2-0-2-4-0-----9-7-9-12-9-7-9-7-0-7-5-0--------
--------------------------------------------------------------
--------------------------------------------------------------
--------------------------------------------------------------


--------------------------------------------------------------
--------------------------------------------------------------
-4-2-0-2-4-2h4-0----------------------------------------------
--------------------------------------------------------------
--------------------------------------------------------------
--------------------------------------------------------------


--------------------------------------------------------------
--------------------------------------------------------------
-----9-7-9-12-9-7-9-7-0-7-5-0---9-7-9-12-9-7-9s12-------------
--------------------------------------------------------------
--------------------------------------------------------------
--------------------------------------------------------------


(Riff 4)
"traveling, swallowing dramamine..." 
(1:11) 
<In the background while playing this, is the 
same riff as above but before it, is the riff a. >
-------------             
-------------			    
--9--7--9----   --Repeat 8 times    
--9--7--9----			    
--7--5--7----			    
-------------			    

(Riff a)
-------------
-------------
---0-0-4-0---
-------------
-------------
-------------
(Riff 3)
(1:42)
--------------------------------------------------------------
--------------------------------------------------------------
-9-7-9-12-9-7-4-2-0-2-4-0-----9-7-9-12-9-7-9-7-0-7-5-0--------
--------------------------------------------------------------
--------------------------------------------------------------
--------------------------------------------------------------


--------------------------------------------------------------
--------------------------------------------------------------
-9-7-9-12-9-7-4-2-0-2-4-0----9-7-9-12-9-7-9-4-2-0-2-4-2h4-0---
--------------------------------------------------------------
--------------------------------------------------------------
--------------------------------------------------------------


--------------------------------------------------------------
--------------------------------------------------------------
-----9-7-9-12-9-7-9-7-0-7-5-0---9-7-9-12-9-7-9s12-------------
--------------------------------------------------------------
--------------------------------------------------------------
--------------------------------------------------------------

(2:09)
Go back to Riff 4 with Riff a

(2:38)
After the 7th time you play Riff 4,1 and a. Play this next riff
(you are going to need to figure out the rhythm yourself, sorry)

Riff 5
------------------
------------------
--9--7--12--------   --Repeat 8-9 times, the rhythm changes
--9--7--12--------
--7--5--10--------
------------------

(3:13)
--------------------------------------------------------------
-12-10-8s7-8-7s3-3s1-0h1-0h1-3-1p0----------------------------
-----------------------------------0-------------------------- --Repeat twice
--------------------------------------------------------------
--------------------------------------------------------------
--------------------------------------------------------------

(3:29)
--------------------------------------------------------------
-12-10---12-10----8-10p8----8-10p8----------------------------
-------9-------9--------9----------9--------------------------
--------------------------------------------------------------
--------------------------------------------------------------
--------------------------------------------------------------

--------------------------------------------------------------
-12-10---12-10----8-10p8--------------------------------------
-------9-------9--------9-------------------------------------
-------------------------------------------------------------- 
--------------------------------------------------------------  
--------------------------------------------------------------
Repeat these two until it fades away
which is about (3:52)



After this, just play riff 1 until 4:15, then Riff 2 comes back in again
At 4:27, is when Riff 3 comes back, and riff 2 is hidden in the background 

The music will fade off after the last part of Riff 3 repeats about 2 or 3 times
Then it will jsut be drums and whatever that is in the background heh. 
Hope I did alright, i was sick of seeing Dramamine tabs with missing stuff
-Sara (AIM: Psychotic Chyld)
            
Submit corrections

comments powered by Disqus
↑ Back to top | Modest Mouse Tabs for Dramamine. Lyrics for acoustic guitar and electric guitar. Tablatures and chords are parodies/interpretations of the original songs. You may use it for private study, scholarship, research or language learning purposes only