>
 >
Float On

Float On Guitar Tabs

Modest Mouse - Float On chords, tabs, tablatures, lyrics

Guitar lessons | Add/correct | Request | Top 50 tabs Artists:  A B C D E F G H I J K L M N O P Q R S T U V W X Y Z 0-9

Float On Guitar Tabs – Modest Mouse

CD, Sheet music, Poster

Do you like Float On? Share with your friends now
Bass TabsBass Tabs v2Bass Tabs v3ChordsChords v2Chords v3Chords v4Drum TabsTabsTabs v2Tabs v3Tabs v4Tabs v5Tabs v6Tabs v7Tabs v8Tabs v9UkuleleUkulele v2
Gtr I (E A D G B E) - 'Clean w/capo'
Gtr II (E A D G B E) - 'Light Dist. w/ wah'

**Capo on 6th Fret!**

 Intro
 
                   C                    Em
 1/8 4/4
  Gtr I
  
|---|------------|-0----0---0-(0)-0-0-0-0-0-|-0--0---0-(0)-0-0-0-0-0-|
|---|------------|-0h1--1---1-(1)-1-1-1-0-0-|-0--0---0-(0)-0-0-0-0-0-|
|---|------------|-0----0---0-(0)-0-0-0-0-0-|-0--0---0-(0)-0-0-0-0-0-|
|---|------------|--------------------------|------------------------|
|---|------------|--------------------------|------------------------|
|---|------------|--------------------------|------------------------|


       Fmaj7           Em
  
|-0----0---0-(0)-0-0-0-0-0-|-0-0-0-0-0-(0)-0-0-0-0-0-|
|-0h1--1---1-(1)-1-1-1-0-0-|-0-0-0-0-0-(0)-0-0-0-0-0-|
|-0h2--2---2-(2)-2-2-2-0-0-|-0-0-0-0-0-(0)-0-0-0-0-0-|
|--------------------------|-2-2-2-2-2-(2)-2-2-2-2-2-|
|--------------------------|-------------------------|
|--------------------------|-------------------------|


  C                                   Em
  Gtr I
   
|--0-------0----0-(0)-0--0------0------0-0-|--0----0----0-(0)-0--0------0------0--0-|
|--0h1-----1----1-(1)-1--1------1------0-0-|--0----0----0-(0)-0--0------0------0--0-|
|--0-------0----0-(0)-0--0------0------0-0-|--0----0----0-(0)-0--0------0------0--0-|
|------------------------------------------|----------------------------------------|
|------------------------------------------|----------------------------------------|
|------------------------------------------|----------------------------------------|
|
| Gtr II
|  PM--------------------------------------------------------------------------------
|  
|----------9-------------------------------|-------9--------------------------------|
|-------11---11----9----11-11-(11)-11-11---|----11---11----9----11-11-(11)-11-11-11-|
|-10---------------------------------------|-10-------------------------------------|
|------------------------------------------|----------------------------------------|
|------------------------------------------|----------------------------------------|
|------------------------------------------|----------------------------------------|


     Fmaj7                            Em
   
|--0-------0----0-(0)-0--0------0------0--0-|--0--0--0--0-0-(0)-0--0----0-0-0----|
|--0h1-----1----1-(1)-1--1------1------0--0-|--0--0--0--0-0-(0)-0--0----0-0-0----|
|--0h2-----2----2-(2)-2--2------2------0--0-|--0--0--0--0-0-(0)-0--0----0-0-0----|
|-------------------------------------------|--2--2--2--2-2-(2)-2--2----2-2-2----|
|-------------------------------------------|------------------------------------|
|-------------------------------------------|------------------------------------|
|
|----------------------------------------|
| 
|----------9--------------------------------|------------------------------------|
|-------11---11----9----11-11-(11)-11-11-11-|-11-11-11-11---11----11-11-9-7------|
|-10----------------------------------------|------------------------------------|
|-------------------------------------------|------------------------------------|
|-------------------------------------------|------------------------------------|
|-------------------------------------------|------------------------------------|


   Verse
    C                    Em
    
||--0----0---0-(0)-0-0-0-0-0-|-0--0---0-(0)-0-0-0-0-0-|
||o-0h1--1---1-(1)-1-1-1-0-0-|-0--0---0-(0)-0-0-0-0-0-|
||--0----0---0-(0)-0-0-0-0-0-|-0--0---0-(0)-0-0-0-0-0-|
||---------------------------|------------------------|
||o--------------------------|------------------------|
||---------------------------|------------------------|


    Fmaj7              Em
  
|-0----0---0-(0)-0-0-0-0-0-|-0-0-0-0-0-(0)-0-0-0-0-0----||
|-0h1--1---1-(1)-1-1-1-0-0-|-0-0-0-0-0-(0)-0-0-0-0-0---o||
|-0h2--2---2-(2)-2-2-2-0-0-|-0-0-0-0-0-(0)-0-0-0-0-0----||
|--------------------------|-2-2-2-2-2-(2)-2-2-2-2-2----||
|--------------------------|---------------------------o||
|--------------------------|----------------------------||


  C                                   Em
  Gtr I
 
|--0-------0----0-(0)-0--0------0------0-0-|--0----0----0-(0)-0--0------0------0--0-|
|--0h1-----1----1-(1)-1--1------1------0-0-|--0----0----0-(0)-0--0------0------0--0-|
|--0-------0----0-(0)-0--0------0------0-0-|--0----0----0-(0)-0--0------0------0--0-|
|------------------------------------------|----------------------------------------|
|------------------------------------------|----------------------------------------|
|------------------------------------------|----------------------------------------|
|
| Gtr II
|  PM--------------------------------------------------------------------------------
|
|----------9-------------------------------|-------9--------------------------------|
|-------11---11----9----11-11-(11)-11-11---|----11---11----9----11-11-(11)-11-11-11-|
|-10---------------------------------------|-10-------------------------------------|
|------------------------------------------|----------------------------------------|
|------------------------------------------|----------------------------------------|
|------------------------------------------|----------------------------------------|


     Fmaj7                            Em
   
|--0-------0----0-(0)-0--0------0------0--0-|--0--0--0--0-0-(0)-0--0----0-0-0----|
|--0h1-----1----1-(1)-1--1------1------0--0-|--0--0--0--0-0-(0)-0--0----0-0-0----|
|--0h2-----2----2-(2)-2--2------2------0--0-|--0--0--0--0-0-(0)-0--0----0-0-0----|
|-------------------------------------------|--2--2--2--2-2-(2)-2--2----2-2-2----|
|-------------------------------------------|------------------------------------|
|-------------------------------------------|------------------------------------|
|
|----------------------------------------|
|  
|----------9--------------------------------|------------------------------------|
|-------11---11----9----11-11-(11)-11-11-11-|-11-11-11-11---11----11-11-9-7------|
|-10----------------------------------------|------------------------------------|
|-------------------------------------------|------------------------------------|
|-------------------------------------------|------------------------------------|
|-------------------------------------------|------------------------------------|


 Chorus
  C                 Em                Fmaj7             Em
  Gtr I
  
|-----0-------0---|-----0-------0---|-----0-------0---|---------0-------|
|---1---1---1---1-|---0---0---0---0-|---1---1---1---1-|-----0-----0---0-|
|-0-------0-------|-0-------0-------|-2-------2-------|---0---0-----0---|
|-----------------|-----------------|-----------------|-2---------------|
|-----------------|-----------------|-----------------|-----------------|
|-----------------|-----------------|-----------------|-----------------|


  C                 Em                Fmaj7             Em
  
|-----0-------0---|-----0-------0---|-----0-------0---|---------0-------||
|---1---1---1---1-|---0---0---0---0-|---1---1---1---1-|-----0-----0---0-||
|-0-------0-------|-0-------0-------|-2-------2-------|---0---0-----0---||
|-----------------|-----------------|-----------------|-2---------------||
|-----------------|-----------------|-----------------|-----------------||
|-----------------|-----------------|-----------------|-----------------||


 Verse
  C                    Em
  Gtr I
  
|-0----0---0-(0)-0-0-0-0-0-|-0--0---0-(0)-0-0-0-0-0-|
|-0h1--1---1-(1)-1-1-1-0-0-|-0--0---0-(0)-0-0-0-0-0-|
|-0----0---0-(0)-0-0-0-0-0-|-0--0---0-(0)-0-0-0-0-0-|
|--------------------------|------------------------|
|--------------------------|------------------------|
|--------------------------|------------------------|
|
| Gtr II
| W                          W
|--------------------------|------------------------|
|--------------------------|------------------------|
|--------------------------|------------------------|
|--------------------------|------------------------|
|--------------------------|------------------------|
|--------------------------|------------------------|


    Fmaj7                      Em
  
|-0-------0---0-(0)-0-0--0------0--0-|--0--0-0-0-0-(0)-0-0-0-0-0---|
|-0h1-----1---1-(1)-1-1--1------0--0-|--0--0-0-0-0-(0)-0-0-0-0-0---|
|-0h2-----2---2-(2)-2-2--2------0--0-|--0--0-0-0-0-(0)-0-0-0-0-0---|
|------------------------------------|--2--2-2-2-2-(2)-2-2-2-2-2---|
|------------------------------------|-----------------------------|
|------------------------------------|-----------------------------|
|
|                        \0.5___/
|      ~~~~~~~~~~~~~
| 
|------------------------------------|-----------------------------|
|------------------------------------|-----------------------------|
|------4--------(4)-----(4)----(4)---|-(4)-----4-------------------|
|------------------------------------|-----------------------------|
|------------------------------------|-----------------------------|
|------------------------------------|-----------------------------|


  C                    Em
  
|-0----0---0-(0)-0-0-0-0-0-|-0--0---0-(0)-0-0-0-0-0-|
|-0h1--1---1-(1)-1-1-1-0-0-|-0--0---0-(0)-0-0-0-0-0-|
|-0----0---0-(0)-0-0-0-0-0-|-0--0---0-(0)-0-0-0-0-0-|
|--------------------------|------------------------|
|--------------------------|------------------------|
|--------------------------|------------------------|
|
| W                          W
|--------------------------|------------------------|
|--------------------------|------------------------|
|--------------------------|------------------------|
|--------------------------|------------------------|
|--------------------------|------------------------|
|--------------------------|------------------------|


    Fmaj7                             Em
  
|-0----------0------0-(0)---0--0---0--0-----0-|--0---0------0---0-----0-(0)-0--0------0---0--0---|
|-0h1--------1------1-(1)---1--1---1--0-----0-|--0---0------0---0-----0-(0)-0--0------0---0--0---|
|-0h2--------2------2-(2)---2--2---2--0-----0-|--0---0------0---0-----0-(0)-0--0------0---0--0---|
|---------------------------------------------|--2---2------2---2-----2-(2)-2--2------2---2--2---|
|---------------------------------------------|--------------------------------------------------|
|---------------------------------------------|--------------------------------------------------|
|
|                                     \0.5_______/   \0.5___/   \0.5_____/     \0.5___/
|
|---------------------------------------------|--------------------------------------------------|
|---------------------------------------------|--------------------------------------------------|
|------4b5==(4)r(4)----4b5====(4)r(4)---------|--------------------------------------------------|
|-------------------------------------5-------|-(5)-(5)----(5)-(5)------(5)---(5)----(5)-(5)-----|
|---------------------------------------------|--------------------------------------------------|
|---------------------------------------------|--------------------------------------------------|


  C                      Em
   
|--0-----0---0-(0)-0-0-0-0-0-|-0--0---0-(0)-0-0-0-0-0-|
|--0h=1--1---1-(1)-1-1-1-0-0-|-0--0---0-(0)-0-0-0-0-0-|
|--0-----0---0-(0)-0-0-0-0-0-|-0--0---0-(0)-0-0-0-0-0-|
|----------------------------|------------------------|
|----------------------------|------------------------|
|----------------------------|------------------------|
|
| +Q     E E   +H              W
|----------0---(0)-----------|------------------------|
|----------------------------|------------------------|
|----------------------------|------------------------|
|-(5)------------------------|------------------------|
|----------------------------|------------------------|
|----------------------------|------------------------|


  Fmaj7                      Em
  
|-0---------0----0-(0)-0-0-0-0-0-|-0-0-0-0-0-(0)-0-0-0-0-0--||
|-0h1-------1----1-(1)-1-1-1-0-0-|-0-0-0-0-0-(0)-0-0-0-0-0--||
|-0h2-------2----2-(2)-2-2-2-0-0-|-0-0-0-0-0-(0)-0-0-0-0-0--||
|--------------------------------|-2-2-2-2-2-(2)-2-2-2-2-2--||
|--------------------------------|--------------------------||
|--------------------------------|--------------------------||
|
|      PM|
| |---3---|
| 
|-------------10-----------------|-0------------------------||
|-------------10-----------------|--------------------------||
|--------------------------------|--------------------------||
|------9-10----------------------|--------------------------||
|--------------------------------|--------------------------||
|--------------------------------|--------------------------||


  C                                   Em
   
|--0-------0----0-(0)-0--0------0------0--0-|--0----0----0-(0)-0--0------0------0--0-|
|--0h1-----1----1-(1)-1--1------1------0--0-|--0----0----0-(0)-0--0------0------0--0-|
|--0-------0----0-(0)-0--0------0------0--0-|--0----0----0-(0)-0--0------0------0--0-|
|-------------------------------------------|----------------------------------------|
|-------------------------------------------|----------------------------------------|
|-------------------------------------------|----------------------------------------|
|
|  PM---------------------------------------------------------------------------------
|  
|----------9--------------------------------|-------9--------------------------------|
|-------11---11----9----11-11-(11)-11-11-11-|----11---11----9----11-11-(11)-11-11-11-|
|-10----------------------------------------|-10-------------------------------------|
|-------------------------------------------|----------------------------------------|
|-------------------------------------------|----------------------------------------|
|-------------------------------------------|----------------------------------------|


  Fmaj7                               Em
  
|--0-------0----0-(0)-0--0------0------0--0-|--0-----0-----0-0-0-(0)-0-0-0-0-0---||
|--0h1-----1----1-(1)-1--1------1------0--0-|--0-----0-----0-0-0-(0)-0-0-0-0-0---||
|--0h2-----2----2-(2)-2--2------2------0--0-|--0-----0-----0-0-0-(0)-0-0-0-0-0---||
|-------------------------------------------|--2-----2-----2-2-2-(2)-2-2-2-2-2---||
|-------------------------------------------|------------------------------------||
|-------------------------------------------|------------------------------------||
|
|----------------------------------------|
|  
|----------9--------------------------------|------------------------------------||
|-------11---11----9----11-11-(11)-11-11-11-|-11-11-11-11-11-----11------9-7-----||
|-10----------------------------------------|------------------------------------||
|-------------------------------------------|------------------------------------||
|-------------------------------------------|------------------------------------||
|-------------------------------------------|------------------------------------||


 Chorus
  C                   Em
 
|-----0---------0---|-------0-------0---|
|---1---1-----1---1-|-----0---0---0---0-|
|-0--------0--------|--0--------0-------|
|-------------------|-------------------|
|-------------------|-------------------|
|-------------------|-------------------|
|
| ~
| H       +H          +W
|-------------------|-------------------|
|-7-------(7)-------|-(7)---------------|
|-------------------|-------------------|
|-------------------|-------------------|
|-------------------|-------------------|
|-------------------|-------------------|


  Fmaj7               Em
  
|------0--------0---|-----------0-------|
|---1-----1---1---1-|-------0-----0---0-|
|-2---------2-------|-----0---0-----0---|
|-------------------|--2----------------|
|-------------------|-------------------|
|-------------------|-------------------|
|
| 
|-------------------|-------------------|
|-7---(7)-----------|-(7)---------------|
|-------------------|-------------------|
|-------------------|-------------------|
|-------------------|-------------------|
|-------------------|-------------------|


  C                           Em
  
|----------0------------0---|-----0-------0---|
|---1----------1------1---1-|---0---0---0---0-|
|-0----------------0--------|-0-------0-------|
|---------------------------|-----------------|
|---------------------------|-----------------|
|---------------------------|-----------------|
|
|   \0.5___/
| 
|---------------------------|-----------------|
|---7-----(7)-(7)-(7)-------|-----------------|
|---------------------------|-----------------|
|---------------------------|-----------------|
|---------------------------|-----------------|
|---------------------------|-----------------|


  Fmaj7                Em
  
|--------0-------0---|---------0-------||
|------1---1---1---1-|-----0-----0---0-||
|-2----------2-------|---0---0-----0---||
|--------------------|-2---------------||
|--------------------|-----------------||
|--------------------|-----------------||
|
| \0.5
| 
|--------------------|-----------------||
|--------------------|-----------------||
|-3----------3-------|-----------------||
|--------------------|-----------------||
|--------------------|-----------------||
|--------------------|-----------------||


   Verse
    C                                   Em
     
||---0-------0----0-(0)-0--0------0------0--0-|--0----0----0-(0)-0--0------0------0--0-|
||o--0h1-----1----1-(1)-1--1------1------0--0-|--0----0----0-(0)-0--0------0------0--0-|
||---0-------0----0-(0)-0--0------0------0--0-|--0----0----0-(0)-0--0------0------0--0-|
||--------------------------------------------|----------------------------------------|
||o-------------------------------------------|----------------------------------------|
||--------------------------------------------|----------------------------------------|
|
|    PM---------------------------------------------------------------------------------
|    
||-----------9--------------------------------|-------9--------------------------------|
||o-------11---11----9----11-11-(11)-11-11-11-|----11---11----9----11-11-(11)-11-11-11-|
||--10----------------------------------------|-10-------------------------------------|
||--------------------------------------------|----------------------------------------|
||o-------------------------------------------|----------------------------------------|
||--------------------------------------------|----------------------------------------|


  Fmaj7                               Em
 
|--0-------0----0-(0)-0--0------0------0--0-|--0-----0-----0-0-0-(0)-0-0-0-0-0---||
|--0h1-----1----1-(1)-1--1------1------0--0-|--0-----0-----0-0-0-(0)-0-0-0-0-0--o||
|--0h2-----2----2-(2)-2--2------2------0--0-|--0-----0-----0-0-0-(0)-0-0-0-0-0---||
|-------------------------------------------|--2-----2-----2-2-2-(2)-2-2-2-2-2---||
|-------------------------------------------|-----------------------------------o||
|-------------------------------------------|------------------------------------||
|
|----------------------------------------|
| 
|----------9--------------------------------|------------------------------------||
|-------11---11----9----11-11-(11)-11-11-11-|-11-11-11-11-11-----11------9-7----o||
|-10----------------------------------------|------------------------------------||
|-------------------------------------------|------------------------------------||
|-------------------------------------------|-----------------------------------o||
|-------------------------------------------|------------------------------------||


 Interlude
  C  N.C.
  
|-0----------|------------|----------|--------3--------||
|-1----------|------------|----------|-1--0--(0)--(0)--||
|-0----------|------------|----------|-0--0---0---(0)--||
|-2----------|------------|----------|-----------------||
|------------|------------|----------|-----------------||
|------------|------------|----------|-----------------||
|
| 
|------------|------------|----------|-----------------||
|-7----------|-(7)--------|----------|-----------------||
|------------|------------|----------|-----------------||
|------------|------------|----------|-----------------||
|------------|------------|----------|-----------------||
|------------|------------|----------|-----------------||


 Outro
  Gtr II
                                             PM
 
|----------|----------|----------|-------------|
|----------|----------|----------|-------------|
|----------|----------|----------|-----------1-|
|----------|----------|----------|-------------|
|----------|----------|----------|-------------|
|----------|----------|----------|-------------|


  N.C.
  
|-------------------|-----------------------|----------------|------|
|-------------------|-----------------------|----------------|------|
|---1-3-1-----1-3-1-|---1-3-1---1-3-(3)-3-1-|---1-3-1--------|------|
|-4-------4---------|-4-------4-------------|-4-------4------|------|
|-------------------|-----------------------|----------------|------|
|-------------------|-----------------------|----------------|------|


  C                                   Em
  Gtr I
   
|--0-------0----0-(0)-0--0------0------0--0-|--0----0----0-(0)-0--0------0------0--0-|
|--0h1-----1----1-(1)-1--1------1------0--0-|--0----0----0-(0)-0--0------0------0--0-|
|--0-------0----0-(0)-0--0------0------0--0-|--0----0----0-(0)-0--0------0------0--0-|
|-------------------------------------------|----------------------------------------|
|-------------------------------------------|----------------------------------------|
|-------------------------------------------|----------------------------------------|
|
| Gtr II
|  PM---------------------------------------------------------------------------------
|  
|----------9--------------------------------|-------9--------------------------------|
|-------11---11----9----11-11-(11)-11-11-11-|----11---11----9----11-11-(11)-11-11-11-|
|-10----------------------------------------|-10-------------------------------------|
|-------------------------------------------|----------------------------------------|
|-------------------------------------------|----------------------------------------|
|-------------------------------------------|----------------------------------------|


  Fmaj7                               Em
  
|--0-------0----0-(0)-0--0------0------0--0-|--0-----0-----0-0-0-(0)-0-0-0-0-0---|
|--0h1-----1----1-(1)-1--1------1------0--0-|--0-----0-----0-0-0-(0)-0-0-0-0-0---|
|--0h2-----2----2-(2)-2--2------2------0--0-|--0-----0-----0-0-0-(0)-0-0-0-0-0---|
|-------------------------------------------|--2-----2-----2-2-2-(2)-2-2-2-2-2---|
|-------------------------------------------|------------------------------------|
|-------------------------------------------|------------------------------------|
|
|----------------------------------------|
| 
|----------9--------------------------------|------------------------------------|
|-------11---11----9----11-11-(11)-11-11-11-|-11-11-11-11-11-----11------9-7-----|
|-10----------------------------------------|------------------------------------|
|-------------------------------------------|------------------------------------|
|-------------------------------------------|------------------------------------|
|-------------------------------------------|------------------------------------|


  C                                   Em
   
|--0-------0----0-(0)-0--0------0------0-0-|--0----0----0-(0)-0--0------0------0--0-|
|--0h1-----1----1-(1)-1--1------1------0-0-|--0----0----0-(0)-0--0------0------0--0-|
|--0-------0----0-(0)-0--0------0------0-0-|--0----0----0-(0)-0--0------0------0--0-|
|------------------------------------------|----------------------------------------|
|------------------------------------------|----------------------------------------|
|------------------------------------------|----------------------------------------|
|
|  PM--------------------------------------------------------------------------------
| 
|----------9-------------------------------|-------9--------------------------------|
|-------11---11----9----11-11-(11)-11-11---|----11---11----9----11-11-(11)-11-11-11-|
|-10---------------------------------------|-10-------------------------------------|
|------------------------------------------|----------------------------------------|
|------------------------------------------|----------------------------------------|
|------------------------------------------|----------------------------------------|


  Fmaj7                               Em
   
|--0-------0----0-(0)-0--0------0------0--0-|--0--0--0--0-0-(0)-0--0----0-0-0----|
|--0h1-----1----1-(1)-1--1------1------0--0-|--0--0--0--0-0-(0)-0--0----0-0-0----|
|--0h2-----2----2-(2)-2--2------2------0--0-|--0--0--0--0-0-(0)-0--0----0-0-0----|
|-------------------------------------------|--2--2--2--2-2-(2)-2--2----2-2-2----|
|-------------------------------------------|------------------------------------|
|-------------------------------------------|------------------------------------|
|
|----------------------------------------|
| 
|----------9--------------------------------|------------------------------------|
|-------11---11----9----11-11-(11)-11-11-11-|-11-11-11-11---11----11-11-9-7------|
|-10----------------------------------------|------------------------------------|
|-------------------------------------------|------------------------------------|
|-------------------------------------------|------------------------------------|
|-------------------------------------------|------------------------------------|


  C
  
|--0---------|-(0)--------|----------|----------|------*|
|--1---------|-(1)--------|----------|----------|------*|
|--0---------|-(0)--------|----------|----------|------*|
|------------|------------|----------|----------|------*|
|------------|------------|----------|----------|------*|
|------------|------------|----------|----------|------*|
|
| 
|------------|------------|----------|----------|------*|
|-(7)--------|-(7)--------|----------|----------|------*|
|------------|------------|----------|----------|------*|
|------------|------------|----------|----------|------*|
|------------|------------|----------|----------|------*|
|------------|------------|----------|----------|------*|




Tablature Legend
----------------
 h   - hammer-on
 p   - pull-off
 b   - bend
 pb  - pre-bend
 r   - bend release (if no number after the r, then release immediately)
 /\  - slide into or out of (from/to "nowhere")
 s   - legato slide
 S   - shift slide
  - natural harmonic
[n]  - artificial harmonic
n(n) - tapped harmonic
 ~   - vibrato
 tr  - trill
 T   - tap
 TP  - trem. picking
 PM  - palm muting
\n/  - tremolo bar dip; n = amount to dip
 \n  - tremolo bar down
 n/  - tremolo bar up
/n\  - tremolo bar inverted dip
 =   - hold bend; also acts as connecting device for hammers/pulls
   - volume swell (louder/softer)
 x   - on rhythm slash represents muted slash
 o   - on rhythm slash represents single note slash





Comments


Popular Modest Mouse tabs & chords
Edit The Sad Parts 3 Bass Tabs
Interstate 8 3 Bass Tabs
Bankrupt On Selling Chords
Good Times Are Killing Me 1 Chords
Blame It On The Tetons Tabs
Dance Hall Tabs
Perfect Disguise 2 Tabs
Satin In A Coffin Tabs
Whenever You Breathe Out I Breathe In Tabs
Your Life Intro Tabs


Song lyrics



↑ Back to top | Tablatures and chords are parodies/interpretations of the original songs. You may use it for private study, scholarship, research or language learning purposes only
© 2014 AZChords.com Contact us | Privacy policy | DMCA | Add/correct tabs | Request tabs | Top 50 tabs