» » »

Modest Mouse, Dramamine Tabs (ver.2)

Artists:  A B C D E F G H I J K L M N O P Q R S T U V W X Y Z # 

Dramamine Tabs (ver.2)

Modest Mouse Tabs
Rating:
0/5 (0 votes)
Dramamine lessons Tabs too difficult? Try these video lessons and learn fast
                Dramamine
Modest Mouse


Here we go. 

Intro ( Main Riff)
e-------------------------------|
b-------------------------------|
g-------------------------------|
d----5------4------2------4-----|
a--7---7--5---5--3---3------5---|
E-----------------------3-------|


Harmonics (Use whammy bar)
e--7-------------|
b----------------|
g----7---5-5~~---|
d----------------|
a----------------|
E----------------|

You will hear these harmonics tracked on top of the others.
e----------------|
b---5-------5----|
g-5---5---5---5--|
d----------------|
a----------------|
E----------------|


Solo (Isac is basically just using an Emin pattern to D major)
e----------------------------|--------------------------|
b-------8--------------------|-------8------------------|
g-9-7-9---9-7----------------|-9-7-9---9-7-9-7---7-5----| Play this 2x
d--------------9-7----7-9----|-----------------5-----5--|
a------------------10-----10-|--------------------------|
E----------------------------|--------------------------|

Solo (ending)
e----------------------|
b----------------------|
g----------------------|
d-9-7----7-----7/9\5~~-|
a-----10---10----------|
E----------------------|

Play Solo 2X again



Chords (For this song just use the powerchord)

e-------   e------  e------
b-(8)---   b-(7)--  b-(12)-
g--9----   g--7---  g--12--
d--9----   d--7---  d--12--
a--7----   a--5---  a--10--
E-------   E------  E------
  Em 	     D		G
  

Verse: Em D Em
Chorus: Em D G



  Em        D         Em
Travelling swallowing Dramamine (ect)


Solo2
e---------------------------------------------------|
b-12-10---------------------------------------------|
g--------12-11-12~-11/7~~--7-5-4-5-7p5-4--4h5p4-----|
d-----------------------------------------------5---|
a---------------------------------------------------|
E---------------------------------------------------|



e---------------------------------------------------|
b-12-10---------------------------------------------|
g--------12-11-12~-11/7~~--7-5-4-5-4h5h7--7p5p4-----|
d-----------------------------------------------5---|
a---------------------------------------------------|
E---------------------------------------------------|

Riff after the last solo
e---------------------------------------|
b---12-10---12-10-----------------------|
g---------9-------9---9-12^vp9--12^vp9--|
d---------------------------------------|
a---------------------------------------|
E---------------------------------------|

Note* The "^  V" indicate that u have to bend both 
ways to get the effect.




Just finish the rest of the song with the same riffs in the intro.
Sorry the order is wrong, but all the riffs should be here and at
 least decently close. If for some reason you disagree or would like to 
Have fun.

Nathan
            
Submit corrections

comments powered by Disqus
↑ Back to top | Modest Mouse Tabs for Dramamine. Lyrics for acoustic guitar and electric guitar. Tablatures and chords are parodies/interpretations of the original songs. You may use it for private study, scholarship, research or language learning purposes only