» » »

Dramamine Tabs (ver.1)

Artists:  A B C D E F G H I J K L M N O P Q R S T U V W X Y Z # 

Dramamine Tabs (ver.1)

Modest Mouse
Rating:
0/5 (0 votes)

Hard to play? Try these video lessons and learn fast.
                Bass Intro:
G[----12-------11-------9-------11----------]
D[-14----14-12----12-10---10-------12-------]
A[---------------------------10-------------]

Guitar after intro harmonics bent a whole step up with whammy bar on the D, G, and B strings

B[-(5)---------]
G[---------(5)-]
D[-----(5)-----]

Guitar "chorus":
B[-5-3-5-5/8-5-3-------------5-3-5-5/8-5-3-5-3---3-1----]
G[---------------4-2-0-2-4-0-------------------0-----0--]

B[-5-3-5-5/8-5-3-------------5-3-5-5/8-5-3-5-3---3-1-------------------]
G[---------------4-2-0-2-4-0-------------------0-----0-4-2-0-2-0-2/4-0-]


repeat above section however many times, then the verses are just:

   E  D  E     
G[-9--7--9---]
D[-9--7--9---]
A[-7--5--7---]
E[-------0---]
            
Hard to play? Try these video lessons and learn fast. | Correct




comments powered by Disqus
↑ Back to top | Tablatures and chords are parodies/interpretations of the original songs. You may use it for private study, scholarship, research or language learning purposes only