» » »

3rd Planet Tabs (ver.1)

Artists:  A B C D E F G H I J K L M N O P Q R S T U V W X Y Z # 

3rd Planet Tabs (ver.1)

Modest Mouse
Rating:
4/5 (12 votes)

Hard to play? Try these video lessons and learn fast.
                everybody seems to have the last portion incorrect for this song. this is the right way 
play it by the album version.

intro
-------------------------------------------------------------------|
-------------------------------------------------------------------|
-------------------------------------------------------------------|
---9------12------9------12------9------12-----9h10p9h10p9---------|x1
------10------10-----10------10-----10------10---------------------|
-------------------------------------------------------------------|


--------------------------------------------------------------------|
--------------------------------------------------------------------|
-----------------------------------------------------------------12-|
---9------9h10--10p9--9------9h10-10p9--9------9h10-10p9--9---------|x2
------10-----------------10----------------10----------------10-----|
--------------------------------------------------------------------|
--------------------------------------------------------------------|

verse
------------------------------------------------------------------------------|
------------------------------------------------------------------------------|
------------------------------------------------------------------------------|
---9------12------9------12------9------12------9------12------9h10p9h10p9----|x2
------10------10-----10------10-----10------10-----10------10-----------------|
------------------------------------------------------------------------------|

"everything that keeps me together is falling apart
ive got this thing that i consider my only art of f**king people over
my boss just quit the job
says hes going out to find blind spots and he'll do it"


----------------------------------------------------------------------|
----------------------------------------------------------------------|
----------------------------------------------------------------------|
---9------12------9------12------9------12------9------12-------------|x1
------10------10-----10------10-----10------10-----10------10---------|
----------------------------------------------------------------------|

----------------------------------------------------------------------|
----------------------------------------------------------------------|
----------------------------------------------------------------------|
---9------12------9------12------9------12------9h10p9h10p9-----------|x1
------10------10-----10------10-----10------10------------------------|
----------------------------------------------------------------------|

"the 3rd planet is surely there being watched
when you get to the promise land
youre gonna shake that eyes hand"

chorus
the strumming pattern here isnt hard at all. just listen to the song and you'll get it. 
have to use palm mutes after each chord for the first chorus.
--------------------------------------------------------------------|
---10------------10------------8------8-----------------------------|
----0-x5----------0-x5---------0-x5---0-x5--------------------------|
----9-------------x------------x------x-----------------------------|x7
---10-------------9------------7------7-----------------------------|
-----------------10------------8------8-----------------------------|

"your heart felt good, it was dripping pitch and made of wood
and your hands and knees felt cold and wet on the grass beneath
well outside naked shivering looking blue
baby cum angels fly around you
reminding you we used to be three and not just two
and thats how the world began
and thats how the world will end"

second verse
this is the part that everybody seems to get wrong on all the tabs ive seen. this is the 
way.
--------------------------------------------------------------------|
--------------------------------------------------------------------|
-----12-------------------------------------------------------------|
----9--9--------------------------------9h10p9----------------------|x8
--10---------9h10-7--------7-10-7----7------------------------------|
----------10--------10/7-7---------8--------------------------------|

"a 3rd had just been made and we were swimming in the water
didn't know then, was it a son, was it a daughter
when it occurred to me that the animals were swimming
around in the water in the oceans in our bodies
and another had been found another ocean on the planet
given that our blood is just like atlantic
and how
well the universe is shaped exactly like the earth
if you go straight long enough you end up where you were
and the universe is shaped exactly like the earth
if you go straight long enough you end up where you were
the universe is shaped exactly like the earth"

second chorus
this time the strumming pattern is different, its a bit quieter on the chords, and there 
no palm mutes. listen to the song to get the pattern, its a bit weird.
--------------------------------------------------------------------|
---10------------10------------8------8-----------------------------|
----0-------------0------------0------0-----------------------------|
----9-------------x------------x------x-----------------------------|
---10-------------9------------7------7-----------------------------|
-----------------10------------8------8-----------------------------|

"your heart felt good, it was dripping pitch and made of wood
and your hands and knees felt cold and wet on the grass beneath
well outside naked shivering looking blue
baby cum angels fly around you
reminding you we used to be three and not just two
and thats how the world began
and thats how the world will end"


to end, repeat the second verse, then play this again
-------------------------------------------------------------------|
-------------------------------------------------------------------|
-------------------------------------------------------------------|
---9------12------9------12------9------12-----9h10p9h10p9---------|
------10------10-----10------10-----10------10---------------------|
-------------------------------------------------------------------|

------------------------------------------------------------------------------|
------------------------------------------------------------------------------|
------------------------------------------------------------------------------|
---9------12------9------12------9------12------9------12------9h10p9h10p9----|
------10------10-----10------10-----10------10-----10------10-----------------|
------------------------------------------------------------------------------|

"everything that keeps me together is falling apart
ive got this thing that i consider my only art of f**king people over"
            
Hard to play? Try these video lessons and learn fast. | Correct




comments powered by Disqus
↑ Back to top | Tablatures and chords are parodies/interpretations of the original songs. You may use it for private study, scholarship, research or language learning purposes only