» » »

Dashboard Tabs

Artists:  A B C D E F G H I J K L M N O P Q R S T U V W X Y Z # 

Dashboard Tabs

(ver. 1)
Modest Mouse Tabs
 Rating:
4/5 (4 votes)
    Dashboard lessons Tabs too difficult? Try these video lessons and learn fast
                Timing: 4/4
Tuning: Normal


Verse Riff:

e|--------------------------------------------------------------------------------|
B|---14--12------12-----12---12--10------10-----10--------------------------------|
G|---11--11------11-----11---11--11------11-----11---12--11-------11------11------|
D|---9---9----9------9-------12--12---12-----12------14--12-------12------12------|
A|----------------------------------------------------14--12---12------12---------|
E|--------------------------------------------------------------------------------|


e|----------------------------------------------------------|
B|----------------------------------------------------------|
G|--12--11-------11------11----12--11-------11------11------|
D|--14--12-------12------12----14--12-------12------12------|
A|--14--12---12------12--------14--12---12------12----------|
E|----------------------------------------------------------|

This is the riff that he plays in between lyrics:
He variates the picking pattern each time he plays it, but not much.
e|-----------------------------------|
B|-----------------------------------|
G|-----------------------------------|
D|--14-14---14-14--14-14--12-11------|
A|-----------------------------------|
E|-----------------------------------|

This is the riff he plays right before the strings/orchestra come(s) in:

e|-------------------------------------------|
B|-------------------------------------------|
G|---------11-11--9-----------11-11--9-------|
D|--9-9-9--11-11--9----9-9-9--11-11--9-------|
A|--9-9-9--9--9---7----9-9-9--9--9---7-------|
E|--7-7-7--------------7-7-7-----------------|

Here is the orchestra part tabbed out for guitar:

e|------------------------------------------------------|
B|------------------------------------------------10----|
G|---------11------------------------11-----------------|
D|--9--12------9h12p9--------9--12------9h12p9----------|
A|----------------------12------------------------------|
E|------------------------------------------------------|

Alright thats it.

If I left anything out, just give me a message and I'll put it in there.

I'd appreciate 5 stars cause im sure its all correct, but if you dont give it 5 stars 
me why so I can fix it.
            
Submit corrections

↑ Back to top | Modest Mouse Tabs for Dashboard. Lyrics for acoustic guitar and electric guitar. Tablatures and chords are parodies/interpretations of the original songs. You may use it for private study, scholarship, research or language learning purposes only