» » »

Broke Bass tabs (ver.1)

Artists:  A B C D E F G H I J K L M N O P Q R S T U V W X Y Z # 

Broke Bass tabs (ver.1)

Modest Mouse
Rating:
4/5 (2 votes)

Hard to play? Try these video lessons and learn fast.
                -----------------------------------------------------------------
-----------------------------------------------------------------


Tuning:EADGBe


(played throughout the song)
G|-------8-8---|
D|-----------9-|
A|-7--7--------|
E|-------------|

(intro to ending jam)
G|-------8-8------8/11\-|
D|-----------9----------|
A|-7--7---------7-------|
E|----------------------|

(last bassline)
G|-----------8-8-----|
D|---------------9-9-|
A|-7-7-7-7-7---------|
E|-------------------|

| /  slide up
| \  slide down
| h  hammer-on
| p  pull-off
| ~  vibrato
| +  harmonic
| x  Mute note
            
Hard to play? Try these video lessons and learn fast. | Correct




comments powered by Disqus
↑ Back to top | Tablatures and chords are parodies/interpretations of the original songs. You may use it for private study, scholarship, research or language learning purposes only