» » »

Broke Tabs (ver.1)

Artists:  A B C D E F G H I J K L M N O P Q R S T U V W X Y Z # 

Broke Tabs (ver.1)

Modest Mouse
Rating:
5/5 (5 votes)

Hard to play? Try these video lessons and learn fast.
                BROKE
Guitar Tab
Tuning: Standard EADGBe
 
LEGEND
| pm palm mute
| h  hammer-on
| p  pull-off
 
Intro
           B/E
e|------------------------------------------------|
B|--9-7-------------------------------------------|
G|------9-8-8----9-8---8---8-----8-----8-----8----|
D|----------9--------9-------9-----9-----9-----9--|
A|----------7-------------------------------------|
E|-----------------------7-----7-----7-----7------|

            E
e|------------------------------------------------|
B|--9-7-------------------------------------------|
G|------9-8-9----9-8---8---8-----8-----8-----8----|
D|----------9--------9-------9-----9-----9-----9--|
A|----------7-------------------------------------|
E|-----------------------7-----7-----7-----7------|
 
e|----------------------------------------------------------------|
B|--9-7-----9p7-----9p7-----9p7----------9p7-----9p7---------7----|
G|------9-8-----9p8-----9p8-----9p8----------9p8-----9p8---8---8--|
D|-------------------------------------------------------9--------|
A|----------------------------------------------------------------|
E|----------------------------------------------------------------| x3
 
e|----------------------------|
B|--9p7-----9p7---------------|
G|------9p8-----9p8-9-8-9-8---|
D|----------------------------|
A|----------------------------|
E|----------------------------|
 
Riff played until ending jam:
 
e|-------------------------------------------------------
B|--9-7--------------------------------------------------
G|------9-8-8----9-8---8---8-----8-----8-----8-----8-----
D|----------9--------9-------9-----9-----9-----9-----9---
A|----------7--------------------------------------------
E|-----------------------7-----7-----7-----7-------------
 
  ----------------------------------------------------------|
  ----------------------------------------------------------|
  --8--8-8-8--8--8--8------9-8---8---8-----8-----8-----8----|
  --9--9-9-9--9--9--9----------9-------9-----9-----9-----9--|
  --7--7-7-7--7--7--7---------------------------------------|
  ---------------------------------7-----7-----7-----7------|
 
2nd guitar plays this over the riff:

   pm..............................|
e|-----------------------------------|
B|----------------7-7-7-7-7-7-7-7-7--|
G|--------8-8-8-8--------------------|
D|--9-9-9----------------------------|
A|-----------------------------------|
E|-----------------------------------|
 
2nd guitar riff variation:
 
   pm..............................|
e|-----------------------------------|
B|----------------7-7-7-7-7----------|
G|--------8-8-8-8-----------9-8-9-8--|
D|--9-9-9----------------------------|
A|-----------------------------------|
E|-----------------------------------|
 
The 2 guitars join at the end and jam with these chords:
 
    B/E   B
e|------------|
B|------------|
G|---8----8---|
D|---9----9---|
A|---7----9---|
E|--------7---|

================================================================
            
Hard to play? Try these video lessons and learn fast. | Correct




comments powered by Disqus
↑ Back to top | Tablatures and chords are parodies/interpretations of the original songs. You may use it for private study, scholarship, research or language learning purposes only