» » »

Breakthrough Tabs (ver.2)

Artists:  A B C D E F G H I J K L M N O P Q R S T U V W X Y Z # 

Breakthrough Tabs (ver.2)

Modest Mouse
Rating:
0/5 (0 votes)

Hard to play? Try these video lessons and learn fast.
                

Tuning: EADgbe


| /  slide up
| \  slide down
| h  hammer-on
| p  pull-off
| ~  vibrato
| +  harmonic
| x  Mute note



e|------------------------|
B|------------------------|
G|------------------------|
D|---7-7-7-7-5-7-5-7------|
A|---5-5-5-5-7-5-7-5------|
E|------------------------|



e|---------------------|
B|---------------------|
G|---------------------|
D|--7-7-7-7-5-5-5-5----|
A|--5-5-5-5-7-7-7-7----|
E|---------------------|



e|------------------------|
B|------------------------|
G|------------------------|
D|---7-7-7-7-5-7-5-7--4---|
A|---5-5-5-5-7-5-7-5------|
E|------------------------|


e|------------------------|
B|------------------------|
G|-------------------7----|
D|---7-7-7-7-5-7-5-7------|
A|---5-5-5-5-7-5-7-5------|
E|------------------------|



e|------------------------|
B|------------------------|
G|------------------------|
D|---7-7-7-7-5-7-5-7--4---|
A|---5-5-5-5-7-5-7-5------|
E|------------------------|



e|------------------------|
B|------------------------|
G|------------------------|
D|---7-7-7-7-5-7-5-7--4---|
A|---5-5-5-5-7-5-7-5------|
E|------------------------|




e|------------------|3x
B|------------------|
G|--7--11--9--7-----|
D|--0--0---0--0-----|
A|--5--9---7--5-----|
E|------------------|



palm mute this part

e|--------------------------------------------------------------------|
B|--------------------------------------------------------------------|
G|--------------------------------------------------------------------|
D|--0-0-0-4-7-4--0-0-0-0-0-4-7-4-4-------2---2----0-0-0-4-4-5-5-4-----|
A|---------------------------------5-5-5---5---5----------------------|
E|--------------------------------------------------------------------|



I cant describe the strumming so you'll have to figure that out

e|-----------------------------------------|3x
B|-----------------------------------------|
G|-7--11\-9\-7\-6---6--7--9--11-7--4-------|
D|-0---0\-0\-0\-0---0--0--0--0--0--0-------|
A|-5---9\-7\-5\-4---4--5--7--9--5--2-------|
E|-----------------------------------------|



e|--------------------------------------------------------------------|
B|--------------------------------------------------------------------|
G|--------------------------------------------------------------------|
D|--0-0-0-4-7-4--0-0-0-0-0-4-7-4-4-------2---2----0-0-0-4-4-5-5-4-----|
A|---------------------------------5-5-5---5---5----------------------|
E|--------------------------------------------------------------------|



e|-----------------------------------------|
B|-----------------------------------------|
G|-7--11\-9\-7\-6---6--7--9--11-7--4-------|
D|-0---0\-0\-0\-0---0--0--0--0--0--0-------|
A|-5---9\-7\-5\-4---4--5--7--9--5--2-------|
E|-----------------------------------------|



e|------------------|
B|------------------|
G|--7--11--9--7-----|
D|--0--0---0--0-----|
A|--5--9---7--5-----|
E|------------------|




e|----------------------------------------------------------------------|2x
B|----------------------------------------------------------------------|
G|----------------------------------------------------------------------|
D|-----------7-5-4---------7-5-4--4h5p4-4h5p4-4h5p4---2-----2----2------|
A|--2-5-2-5--------2-5-2-5------------------------------5-4--5-4---5----|
E|----------------------------------------------------------------------|




e|------------------------------------------------------------------------------|
B|------------------------------------------------------------------------------|
G|------------------------------------------------------------------------------|
D|--7-9-7-9-7-9-12-7-9-7-9-5-7-5-7-7-9-7-9-7-9-12-10h9-7-5-7--------------------|
A|-----------------------------------------------------------7-0-----7-0--------|
E|---------------------------------------------------------------5-7-----5-7----|





e|------------------------------------------------------------|
B|------------------------------------------------------------|
G|------------------------------------------------------------|
D|---9-9-9-9-9-7-7-7-9-9-9-9-12-9-9-7-7-5---------------------|
A|-----------------------------------------7-0-----7-0--------|
E|---------------------------------------------5-7-----5-7----|



do this a bit

e|-------------------------|
B|-------------------------|
G|-------------------------|
D|---9-9-9-9-9-7-7-7-7-----|
A|-------------------------|
E|-------------------------|




e|---------------|
B|---------------|
G|---------------|
D|--4-5-4-0------|
A|---------------|
E|---------------|



e|-------------------------|
B|-------------------------|
G|-------------------------|
D|---9-9-9-9-9-7-7-7-7-----|
A|-------------------------|
E|-------------------------|



e|-------------|
B|-----19b-----|
G|-------------|
D|-------------|
A|-------------|
E|-------------|


e|-------------------------|
B|-------------------------|
G|-------------------------|
D|---9-9-9-9-9-7-7-7-7-----|
A|-------------------------|
E|-------------------------|



e|---------------------------------|
B|---------------------------------|
G|---------------------------------|
D|-4b-4b-5b-5b---------------------|
A|-------------6b--2b--5b-4b-0-----|
E|---------------------------------|
            
Hard to play? Try these video lessons and learn fast. | Correct




comments powered by Disqus
↑ Back to top | Tablatures and chords are parodies/interpretations of the original songs. You may use it for private study, scholarship, research or language learning purposes only