>
 >
Breakthrough

Breakthrough Bass Tabs

Modest Mouse - Breakthrough chords, tabs, tablatures, lyrics

Guitar lessons | Add/correct | Request | Top 50 tabs Artists:  A B C D E F G H I J K L M N O P Q R S T U V W X Y Z 0-9

Breakthrough Bass Tabs – Modest Mouse

CD, Sheet music, Poster

Do you like Breakthrough? Share with your friends now
Bass TabsTabsTabs v2

(0:00-0:26)
G------------------------------------|
D------------------------------------|
A-2-2-2-2--0-0-0-0--5-5-5-5----------|
E----------------------------3-3-3-3-|x3

(0:26-0:51)
G------------------------------------|
D------------------------------------|
A-22-242-0--55-575-9-----------------|
E---------------------22-232-5-3(x8)-|x3

(0:51-1:26)
G------------------------------------|
D------------------------------------|
A------9-12-10-9----9-12-9-10--------|
E-1010-----------99------------------|

G------------------------------------|
D------------------------------------|
A------------------10----10----------|
E-99-9-12-10-9-1010--1010------------|x4

(1:26-1:52)
G------------------------------------|
D------------------------------------|
A-22-242-0---------------------------|
E-----------22-232-5--22-232-5-3(x8)-|x3

(1:52-2:27)
G------------------------------------|
D------------------------------------|
A------9-12-10-9----9-12-9-10--------|
E-1010-----------99------------------|

(2:27-2:44)
G------------------------------------|
D------------------------------------|
A-22-242-0---------------------------|
E-----------22-232-5--22-232-5-3(x8)-|x2

(2:44-3:18)
G------------------------------------|
D------------------------------------|
A------------------------------------|
E-7(x7)-10(x7)-2(x8)-3(x8)-----------|

(3:18-3:52)
G------------------------------------|
D------------------------------------|
A-2242-542-5575-975------------------|
E-------------------2232-532-3(x8)---|x4

G------------------------------------|
D------------------------------------|
A------------------------------------|
E-7~~~-------------------------------|





Comments


Popular Modest Mouse tabs & chords
Dashboard 4 Bass Tabs
Lounge 2 Bass Tabs
The Fruit That Ate Itself Bass Tabs
King Rat Chords
Dark Center Of The Universe Tabs
Dramamine 6 Tabs
Here It Comes Tabs
Invisible Intro Tabs
Karma Payment Plan Tabs
Needle Point 1 Tabs


Song lyrics



↑ Back to top | Tablatures and chords are parodies/interpretations of the original songs. You may use it for private study, scholarship, research or language learning purposes only
© 2014 AZChords.com Contact us | Privacy policy | DMCA | Add/correct tabs | Request tabs | Top 50 tabs