» » »

Mr. Pink Bass tabs (ver.2)

Artists:  A B C D E F G H I J K L M N O P Q R S T U V W X Y Z # 

Mr. Pink Bass tabs (ver.2)

Level 42
Rating:
0/5 (0 votes)

Hard to play? Try these video lessons and learn fast.
                Mr Pink
Level 42
Strategy 1981

Bass: Mark King



  0:07
G|-9-9---7-9-9--7-|-9-9---11-12-10-11-9-10-8-|-9-9---7-9-9--7-|
D|----------------|--------------------------|----------------|
A|----------------|--------------------------|----------------|
E|----------------|--------------------------|----------------|


G|-9-9--7p6-----|---------------------------6-|
D|----------7-5-|-----------------------------|
A|--------------|-------------4-4h5-x-5-x-7---|
E|--------------|-0-x-x-0-x-x-----------------|etc
        P   S S   S S S S S S S S   S S S S P       

The other transcription of this on this site is wrong.
            
Hard to play? Try these video lessons and learn fast. | Correct




comments powered by Disqus
↑ Back to top | Tablatures and chords are parodies/interpretations of the original songs. You may use it for private study, scholarship, research or language learning purposes only