» » »

Children Say Bass tabs (ver.1)

Artists:  A B C D E F G H I J K L M N O P Q R S T U V W X Y Z # 

Children Say Bass tabs (ver.1)

Level 42
Rating:
0/5 (0 votes)

Hard to play? Try these video lessons and learn fast.
                Level 42
Running in The Family 1987


Crotchet = 116 bpm (approx.)

Pick up:
G|-----------|
D|-----------|
A|-----------|
E|-4-5-4-2-0-|


   F#m7
G|--------------------|------------------|
D|--------------------|------------------|
A|--------------2-4---|--------------4-3-|
E|-2-2-0-2-5--5-----5-|-2-2-0-2-5--5-----|


   B (implied b7)
G|-----------------|-----------------|
D|-----------------|-----------------|
A|-2-2-0-------2-2-|-2-2-0-----------|
E|-------4-2-4-----|-------4-2-2-2-4-|


   F#m7
G|--------------------|------------------|
D|--------------------|------------------|
A|--------------2-4---|--------------4-3-|
E|-2-2-0-2-5--5-----5-|-2-2-0-2-5--5-----|


   B (implied b7)   D        E
G|-----------------|---------------|
D|-----------------|---------------|
A|-2-2-0-----------|---------------|
E|-------4-2-4-5-5-|-5-5-4-2-0-2h4-|repeat from first bar after pickup
            
Hard to play? Try these video lessons and learn fast. | Correct




comments powered by Disqus
↑ Back to top | Tablatures and chords are parodies/interpretations of the original songs. You may use it for private study, scholarship, research or language learning purposes only