» » »

Kansas City Milkman Bass tabs (ver.1)

Artists:  A B C D E F G H I J K L M N O P Q R S T U V W X Y Z # 

Kansas City Milkman Bass tabs (ver.1)

Level 42
Rating:
0/5 (0 votes)

Hard to play? Try these video lessons and learn fast.
                Studio Version

Intro

  1   2   3   4    1   2   3   4
G|----------------|----------------|
D|----------------|----------------|  
A|35-----035555300|35-----035555300|
D|--0--0----------|--0--0----------|

Chorus

  1   2   3   4    1   2   3   4
G|----------------|----------------|
D|----------------|----------------|
A|35-----035555300|133--3-013333100|
D|--0--0----------|----------------|

  1   2   3   4    1   2   3   4
G|----------------|----------------|
D|----------------|----------------|
A|----------------|-------------030|
D|355--5-035555300|133--3-013333---|

Verse

  1   2   3   4
G|----------------|
D|-----------2----|
A|------0-4------2|
D|444-4-----------|

  1   2   3   4    1   2   3   4
G|----------------|----------------|
D|----------------|----------------|
A|-2-20-0-----0-02|-2-20-0-----0-02|
D|--------3----3--|--------3----3--|

  1   2   3   4    1   2   3   4
G|----------------|----------------|
D|----------------|----------------|
A|-2-20-0-----0-02|-2-20-0-----0-43|
D|--------3----3--|--------3----3--|

  1   2   3   4
G|----------------|
D|----------------|
A|22-20-0-----0-02|
D|--------3----3--|
            
Hard to play? Try these video lessons and learn fast. | Correct




comments powered by Disqus
↑ Back to top | Tablatures and chords are parodies/interpretations of the original songs. You may use it for private study, scholarship, research or language learning purposes only