» » »

Are Are You Hearing What I Hear Bass tabs (ver.1)

Artists:  A B C D E F G H I J K L M N O P Q R S T U V W X Y Z # 

Are Are You Hearing What I Hear Bass tabs (ver.1)

Level 42
Rating:
0/5 (0 votes)

Hard to play? Try these video lessons and learn fast.
                Are You Hearing (What I Hear)?
Level 42
Pursuit of Accidents 1982

A great live version kicking about of 
He has a great sound on the studio version very... wobbly!



  N.C
G|-------------4---|---6-----8-----|
D|-------4-------6-|-7---7-9---11~-|
A|-----0---4-6-----|---------------|
E|-2-4-------------|---------------|


   F#m     G#m       A       B
G|-------------4---|---6----------|
D|-------4-------6-|-7---7-6-7----|
A|-----0---4-6-----|-----------9~-|
E|-2-4-------------|--------------|


  N.C
G|-------------4---|---6-----8-----|
D|-------4-------6-|-7---7-9---11~-|
A|-----0---4-6-----|---------------|
E|-2-4-------------|---------------|


   F#m     G#m       A       B
G|-------------4---|---6----------|
D|-------4-------6-|-7---7-6-7----|
A|-----0---4-6-----|-----------9~-|
E|-2-4-------------|--------------|
            
Hard to play? Try these video lessons and learn fast. | Correct




comments powered by Disqus
↑ Back to top | Tablatures and chords are parodies/interpretations of the original songs. You may use it for private study, scholarship, research or language learning purposes only