>
 >
Mr. Pink

Mr. Pink Bass Tabs

Level 42 - Mr. Pink chords, tabs, tablatures, lyrics

Guitar lessons | Add/correct | Request | Top 50 tabs Artists:  A B C D E F G H I J K L M N O P Q R S T U V W X Y Z 0-9

Mr. Pink Bass Tabs – Level 42

CD, Sheet music, Poster

Do you like Mr. Pink? Share with your friends now
Bass TabsBass Tabs v2TabsTabs v2
Band: Level 42
Bassist: Mark King
Tuning: Standard Four String Bass (E-A-D-G)

this is the longest time i have spent tabbing out a song... it took a whole week... the

  Q=135
 4/4
  Gtr I
                                               ~
  a Q  S E S a E S S S S S S   S S S S S S S S Q  E E
G|-7h9--7---7-------7---x-----|-------------4----------|
D|------------7h9-------------|-----5---7-------5------|
A|------------------------5---|-7------------------7---|
E|----------------------------|----------------------0-|


  +E  a E S E S a E S S S S S S
|-----7h9-7---7-------7---7-----|
|---------------7h9-------------|
|---------------------------5---|
|-(0)---------------------------|


                  ~~~~~~~
  S S S S S S S S Q  +E  S S
|-------------4--------------|
|-----5---7-------5--(5)-----|
|-7--------------------------|
|------------------------x-x-|


                                               ~
  a Q  S E S S S S S S S S S   S S S S S S S S Q  E E
|-7h9--7---7-------7---x-----|-------------4----------|
|------------7h9-------------|-----5---7-------5------|
|------------------------5---|-7------------------7---|
|----------------------------|----------------------0-|


                                                  ~~~~~~~~~~~~~~
                                                     |---3---|
  +E  a E S E S a E S S S S S S   S S S S S S S S E  S   S   S  E E
|-----7h9-7---7-------7---7-----|-------------4-----------------7---||
|---------------7h9-------------|-----5---7-------5-(5)-(5)-(5)-----||
|---------------------------5---|-7---------------------------------||
|-(0)---------------------------|--------------------x---x---x------||


  S S S S S S S S S S S S S S S S
|-----------------------x-------6-|
|---------------------------------|
|-----------0-4---4S5-----5S7-----|
|-0-x-x-0-x-----------x-------x---|


  S S S S S S S S S S S S S S S S   S S S S S S S S S S S S S S S S
|---7-------------------x---------|-----------------------x-------6-|
|---------------------------------|---------------------------------|
|-----------0-4---4S5-----5S7-----|-----------0-4---4S5-----5S7-----|
|-----x-0-x-----------x-------x-x-|-0-x-x-0-x-----------x-------x---|


  S S S S S S S S S S S S E E   S S S S S S S S S S S S S S S S
|---7-------------------x---6-|-----------------------x----------|
|-----------------------------|----------------------------------|
|-----------0-4---4S5-----0---|-----------0-4---4S5-----5S7---5S=|
|-----x-0-x-----------x-------|-0-x-x-0-x-----------x-------x----|


  S S S S E S S S S S S S S S S   S S S S S S S S S S S S S S S S
|---9-----7-------6-----4-------|-----------------------x-------6--|
|-------------------------------|----------------------------------|
|-7---x-5---x-0h4---x-2---x-5h7-|-----------0-4---4S5-----5S7------|
|-------------------------------|-0-x-x-0-x-----------x-------x----|


  S S S S S S S S S E +S  E S S
|---7-----------------------5-6-||
|-------------------------------||
|-----------0-4---4S5-(5)-------||
|-----x-0-x---------------------||


  S S S E S S S S S S S S S S S   S S S E S S S Q  E S S
|-7-----------------------------|--------------------5-6-|
|---------------------------5-6-|-7----------------------|
|---5-5---2---2-3-3-2-3---0-----|---5-5---2---3----------|
|-------------------------------|------------------------|


  S S S E S S S S S S S S S S S   S S S E S S S Q  E S S
|-7-----------------------------|--------------------5-6-|
|---------------------------5-6-|-7----------------------|
|---5-5---2---2-3-3-2-3---0-----|---5-5---2---3----------|
|-------------------------------|------------------------|


  S S S E S S S S S S S S S S S
|-7-------------------------------|
|---------------------------5-6---|
|---5-5---2---2-3-3-2-3---0-------|
|---------------------------------|


  S S S E S S S Q  E S S   S S S E S S S S S S S S S S S
|--------------------5-6-|-7-----------------------------|
|-7----------------------|---------------------------5-6-|
|---5-5---2---3----------|---5-5---2---2-3-3-2-3---0-----|
|------------------------|-------------------------------|


  S S S E S S S Q  S S S S
|---------------------------||
|-7-------------------------||
|---5-5---2---3------x-5h7--||
|---------------------------||


  S S S S S S S S S S S S S S S S   S S S S S S S S S S S S S S S S
|-----------------------x-------6-|---7-------------------x---------|
|---------------------------------|---------------------------------|
|-----------0-4---4S5-----5S7-----|-----------0-4---4S5-----5S7-----|
|-0-x-x-0-x-----------x-------x---|-----x-0-x-----------x-------x-x-|


  S S S S S S S S S S S S S S S S   S S S S S S S S S S S S E E
|-----------------------x-------6-|---7-------------------x---6-|
|---------------------------------|-----------------------------|
|-----------0-4---4S5-----5S7-----|-----------0-4---4S5-----0---|
|-0-x-x-0-x-----------x-------x---|-----x-0-x-----------x-------|


  S S S S S S S S S S S S S S S S   S S S S E S S S S S S S S S S
|-----------------------x---------|---9-----7-------6-----4--------|
|---------------------------------|--------------------------------|
|-----------0-4---4S5-----5S7---5S|=7---x-5---x-0h4---x-2---x-5h7--|
|-0-x-x-0-x-----------x-------x---|--------------------------------|


  S S S S S S S S S S S S S S S S   S S S S S S S S S S S S S S S S
|-----------------------x-------6-|---7-------------------x-------x-||
|---------------------------------|---------------------------------||
|-----------0-4---4S5-----5S7-----|-----------0-4---4S5-----5S7-----||
|-0-x-x-0-x-----------x-------x---|-----x-0-x-----------x-------x---||


  S S S S S S S S S S S S S S E   E E E E E S S E S S
|---------------x-------3---x---|-------------x-----x-|
|-----x-x-2---x---4S5-----------|---------------------|
|-3---------------------------1-|---3-----------5-----|
|---------------------x---x-----|-----1-3-0-x-----x---|


  S S S S S S S S S S S S S S E
|---------------x-------3---x----|
|-----x-x-2---x---4S5------------|
|-3---------------------------1--|
|---------------------x---x------|


  E E E E E S S E S S   S S S S S S S S S S S S S S E   E E E E E S S E S S
|-------------x-----x-|---------------x-------3---x---|-------------x-----x--|
|---------------------|-----x-x-2---x---4S5-----------|----------------------|
|---3-----------5-----|-3---------------------------1-|---3-----------5------|
|-----1-3-0-x-----x---|---------------------x---x-----|-----1-3-0-x-----x----|


  S S S S S S S S S S S S S S S S
|-----------------------3---x-----|
|---------x-2---x-4S5-------------|
|-x---3-----------------------x-2-|
|---------------------x---x-------|


  S S S S E E E E S S S S    S S S S S S S  E  S S  S E S S
|-------------------------||-------------x--------------------|
|-------------------------||--------------------------9-------|
|-3-3-2---3-4-5---x-x-5h7-||---------------------9-11---x-x---|
|-------------------------||-0-x-x-0-x-x---10h12--------------|


  S S S S S S S S S S S S S S  S  S   S S S S S S S  E  S S  S E S S
|---4-------7-------9---------12h13-|-------------x------------------|
|-----------------------------12----|--------------------------9-----|
|-2-----x-5-----x-7-----------------|---------------------9-11---x-x-|
|---------------------0---x-x-------|-0-x-x-0-x-x---10h12------------|


  S S S S S S S S S S S S S S S S   S S S S S S S  E  S S  S E S S
|---4-------7-------9-------------|-------------x------------------|
|---------------------------------|--------------------------9-----|
|-2-----x-5-----x-7-----------5h7-|---------------------9-11---x-x-|
|---------------------0---x-x-----|-0-x-x-0-x-x---10h12------------|


  S S S S S S S S S S S S S S  S  S   S S S S S S S  E  S S  S E S S
|---4-------7-------9---------12h13-|-------------x------------------|
|-----------------------------12----|--------------------------9-----|
|-2-----x-5-----x-7-----------------|---------------------9-11---x-x-|
|---------------------0---x-x-------|-0-x-x-0-x-x---10h12------------|


  S S S S S S S S S S S S E S S
|---4-------7-------9-----------||
|-------------------------------||
|-2-----x-5-----x-7---------x-x-||
|---------------------0---0-----||


  S S S S S S S S S S S S S S E   E E E E E S S E S S
|---------------x-------3---x---|-------------x-----x--|
|-----x-x-2---x---4S5-----------|----------------------|
|-3---------------------------1-|---3-----------5------|
|---------------------x---x-----|-----1-3-0-x-----x----|


  S S S S S S S S S S S S S S E   E E E E E S S E S S
|---------------x-------3---x---|-------------x-----x-|
|-----x-x-2---x---4S5-----------|---------------------|
|-3---------------------------1-|---3-----------5-----|
|---------------------x---x-----|-----1-3-0-x-----x---|


  S S S S S S S S S S S S S S E
|---------------x-------3---x----|
|-----x-x-2---x---4S5------------|
|-3---------------------------1--|
|---------------------x---x------|


  E E E E E S S E S S   S S S S S S S S S S S S S S S S
|-------------x-----x-|-----------------------3---x-----|
|---------------------|---------x-2---x-4S5-------------|
|---3-----------5-----|-x---3-----------------------x-2-|
|-----1-3-0-x-----x---|---------------------x---x-------|


  S S S S E E E Q  S S
|------------------5-6---|
|------------------------|
|-3-3-2---3-4-5----------|
|------------------------|


  S  S  S E S S S S S S S S S S S   S  S  S E S S S Q  E S S
|-7-------------------------------|----------------------5-6-|
|-----------------------------5-6-|-7------------------------|
|---(0)h5---2---2-3-3-2-3---0-----|---(0)h5---2---3----------|
|---------------------------------|--------------------------|


  S  S  S E S S S S S S S S S S S
|-7---------------------------------|
|-----------------------------5-6---|
|---(0)h5---2---2-3-3-2-3---0-------|
|-----------------------------------|


  S  S  S E S S S Q  E S S
|----------------------5-6-|
|-7------------------------|
|---(0)h5---2---3----------|
|--------------------------|


  S  S  S E S S S S S S S S S S S   S  S  S E S S S Q  E S S
|-7-------------------------------|----------------------5-6-|
|-----------------------------5-6-|-7------------------------|
|---(0)h5---2---2-3-3-2-3---0-----|---(0)h5---2---3----------|
|---------------------------------|--------------------------|


  S  S  S E S S S S S S S S S S S   S  S  S E S S S Q  E S S
|-7-------------------------------|--------------------------||
|---------------------------5-6-7-|--------------------------||
|---(0)h5---2---2-3-3-2-3---------|---(0)h5---2---3------5h7-||
|---------------------------------|--------------------------||


        |-3-| |-3-| |-3-|                     |-3-| |-3-| |-3-|
  S S E S S S S S S S S S S S S S S S   S S E S S S S S S S S S S S S S S S
|-------7-----6-----7-------7---6---7-|-------7-----6-----7-------7---6---7--|
|-------------------------------------|--------------------------------------|
|-------------------------------------|--------------------------------------|
|-x-x-0---0-x---0-x---0-x-x---x---x---|-x-x-0---0-x---0-x---0-x-x---x---x----|


        |-3-| |-3-| |-3-|
  S S E S S S S S S S S S S S S S S S   S S S S S  S S S S S S S S S S S
|-------7-----6-----7-------7---6---7-|---------9h11-9-------9---7h9---7--|
|-------------------------------------|-----------------------------------|
|-------------------------------------|-----------------------------------|
|-x-x-0---0-x---0-x---0-x-x---x---x---|---x-x-0--------x-x-0---x-----x----|


        |-3-| |-3-| |-3-|                     |-3-| |-3-| |-3-|
  S S E S S S S S S S S S S S S S S S   S S E S S S S S S S S S S S S S S S
|-------7-----6-----7-------7---6---7-|-------7-----6-----7-------7---6---7--|
|-------------------------------------|--------------------------------------|
|-------------------------------------|--------------------------------------|
|-x-x-0---0-x---0-x---0-x-x---x---x---|-x-x-0---0-x---0-x---0-x-x---x---x----|


        |-3-| |-3-| |-3-|                     |-3-| |-3-| |-3-|
  S S E S S S S S S S S S S S S S S S   S S E S S S S S S S S S S S S E S
|-------7-----6-----7-------7---6---7-|-------7-----6-----7---------------|
|-------------------------------------|-----------------------------------|
|-------------------------------------|-----------------------------------|
|-x-x-0---0-x---0-x---0-x-x---x---x---|-x-x-0---0-x---0-x---0-x-x-3---3---|


  S S S S S S S S S S S S S S S S   S S S S S S S S S S S S S S S S
|---------------------------------|---------------------------------|
|-------5h6-----------------------|-----------------x-5h6-----------|
|-5h7-x-----x-x-5h7---------x-5h7-|-----------x-5h7-------x-5h7-x-x-|
|-------------------0---0---------|-0-x-x-0-x-----------------------|


  S S S S S S S S S S S S S S S S   S S S S S S S S S S S S S E S
|---------------------------------|--------------------------------|
|-------5h6-----------------------|--------------------------------|
|-5h7-x-----x-x-5h7---------x-5h7-|-----------x-5h7----------------|
|-------------------0---0---------|-0-x-x-0-x-------0-x-x-3---3----|


  S S S S S S S S S S S S S S S S   S S S S S S S S S S S S S S S S
|---------------------------------|---------------------------------|
|-------5h6-----------------------|-----------------x-7h9-----------|
|-5h7-x-----x-x-5h7---------x-5h7-|-----------x-5h7-------x-5h7-x-x-|
|-------------------0---0---------|-0-x-x-0-x-----------------------|


  S S S S S S S S S S S S S S S S   S S S S S S E E E E S S
|---------------------------------|--------------------------||
|-------5h6-----------------------|--------------------------||
|-5h7-x-----x-x-5h7---------x-5h7-|-----------x-4-5---0------||
|-------------------0---0---------|-0-x-x-0-x-----------x-x--||


  |-3-| |-3-| |-3-| |-3-| |-3-| |-3-|  |-3-| |-3-|
  S S S S S S S S S S S S S S S S S S  S S S S S S
|-7-----6-----4-----6-----7-----9-----11-----9-----|
|--------------------------------------------------|
|--------------------------------------------------|
|---0-x---0-x---0-x---0-x---0-x---0-x----0-x---0-x-|


  |-3-| |-3-| |-3-| |-3-| |-3-| |-3-|  |-3-| |-3-|
  S S S S S S S S S S S S S S S S S S  S S S S S S
|-7-----6-----4-----6-----7-----9-----11-----9------|
|---------------------------------------------------|
|---------------------------------------------------|
|---0-x---0-x---0-x---0-x---0-x---0-x----0-x---0-x--|


  |-3-| |-3-| |-3-| |-3-| |-3-| |-3-|  |-3-| |-3-|
  S S S S S S S S S S S S S S S S S S  S S S S S S
|-7-----6-----4-----6-----7-----9-----11-----9-----|
|--------------------------------------------------|
|--------------------------------------------------|
|---0-x---0-x---0-x---0-x---0-x---0-x----0-x---0-x-|


  |-3-| |-3-| |-3-| |-3-| |-3-|
  S S S S S S S S S S S S S S S S S S S E
|-7-----6-----4-----6-----7----------------|
|-------------------------------5h6--------|
|-----------------------------------7-7----|
|---0-x---0-x---0-x---0-x---0-x------------|


                                                     |-3-| |-3-| |-3-|
  E E Q  H      H    Q  E S S   S  S S S S S E T T S S S S S S S S S S
|-9-----------|---------------|--------9-------------7-----6-----7-----|
|-9-----------|---------------|----------------------------------------|
|-7-----------|-------------9-|-9h11-----------------------------------|
|-0-----------|---------------|------x---x-x-0-x-x-0---0-x---0-x---0-x-|


                       |-3-| |-3-| |-3-|
  S  S S S S S E T T S S S S S S S S S S
|--------9-------------7-----6-----7-----|
|----------------------------------------|
|-9h11-----------------------------------|
|------x---x-x-0-x-x-0---0-x---0-x---0-x-|


                       |-3-| |-3-| |-3-|
  S  S S S S S E T T S S S S S S S S S S
|--------9-------------7-----6-----7-------|
|------------------------------------------|
|-9h11-------------------------------------|
|------x---x-x-0-x-x-0---0-x---0-x---0-x---|


                       |-3-| |-3-| |-3-|
  S  S S S S S E T T S S S S S S S S S S   S S E Q  H      W
|--------9-------------7-----6-----7-----|---x-----------|------||
|----------------------------------------|---------------|------||
|-9h11-----------------------------------|-----0---------|------||
|------x---x-x-0-x-x-0---0-x---0-x---0-x-|-x-------------|------||


  S S S S S S S S S S S S S S E   S S S S S S S S S S S S S S E
|-------------------------------|-------------------------------|
|-------5h6-----------7h9-------|-------5h6-----------7h9-------|
|-5h7-x-----x-x-5h7-------x-x-5-|-5h7-x-----x-x-5h7-------x-x-5-|
|-------------------x-----------|-------------------x-----------|


  S S S S S S S S S S S S S S E
|-------------------------------|
|-------5h6-----------7h9-------|
|-5h7-x-----x-x-5h7-------x-x-5-|
|-------------------x-----------|


  S S S S S S S S S S S S E E   S S S S S S S S S S S S S S E
|-----------------------------|-------------------------------|
|-------5h6-------------------|-------5h6-----------7h9-------|
|-5h7-x---------------------5-|-5h7-x-----x-x-5h7-------x-x-5-|
|-----------0---0---0---0-0---|-------------------x-----------|


  S S S S S S S S S S S S S S E
|-------------------------------|
|-------5h6-----------7h9-------|
|-5h7-x-----x-x-5h7-------x-x-5-|
|-------------------x-----------|


  S S S S S S S S S S S S S S E   S S S S S S S S H
|-------------------------------|-7---6---7---6-7------||
|-------5h6-----------7h9-------|----------------------||
|-5h7-x-----x-x-5h7-------x-x-5-|----------------------||
|-------------------x-----------|----------------------||


                                               ~
  a Q  S E S a E S S S S S S   S S S S S S S S Q  E E
|-7h9--7---7-------7---x-----|-------------4----------|
|------------7h9-------------|-----5---7-------5------|
|------------------------5---|-7------------------7---|
|----------------------------|----------------------0-|


  +E  a E S E S a E S S S S S S
|-----7h9-7---7-------7---7------|
|---------------7h9--------------|
|---------------------------5----|
|-(0)----------------------------|


                  ~~~~~~~
  S S S S S S S S Q  +E  S S
|-------------4--------------|
|-----5---7-------5--(5)-----|
|-7--------------------------|
|------------------------x-x-|


                                               ~
  a Q  S E S S S S S S S S S   S S S S S S S S Q  E E
|-7h9--7---7-------7---x-----|-------------4----------|
|------------7h9-------------|-----5---7-------5------|
|------------------------5---|-7------------------7---|
|----------------------------|----------------------0-|


                                                ~
  E a E S E S a E S S S S S S   S S S S S S S S Q  E S S
|---7h9-7---7-------7---7-----|-------------4------------||
|-------------7h9-------------|-----5---7-------5--------||
|-------------------------5---|-7--------------------5h7-||
|-0---------------------------|--------------------------||


  S S S S S S S S S S S S S S S S
|-----------------------x-------6--|
|----------------------------------|
|-----------0-4---4S5-----5S7------|
|-0-x-x-0-x-----------x-------x----|


  S S S S S S S S S S S S S S S S   S S S S S S S S S S S S S S S S
|---7-------------------x---------|-----------------------x-------6-|
|---------------------------------|---------------------------------|
|-----------0-4---4S5-----5S7-----|-----------0-4---4S5-----5S7-----|
|-----x-0-x-----------x-------x-x-|-0-x-x-0-x-----------x-------x---|


  S S S S S S S S S S S S E E   S S S S S S S S S S S S S S S S
|---7-------------------x---6-|-----------------------x----------|
|-----------------------------|----------------------------------|
|-----------0-4---4S5-----0---|-----------0-4---4S5-----5S7---5S=|
|-----x-0-x-----------x-------|-0-x-x-0-x-----------x-------x----|


  S S S S E S S S S S S S S S S   S S S S S S S S S S S S S S S S
|---9-----7-------6-----4-------|-----------------------x-------6--|
|-------------------------------|----------------------------------|
|-7---x-5---x-0h4---x-2---x-5h7-|-----------0-4---4S5-----5S7------|
|-------------------------------|-0-x-x-0-x-----------x-------x----|


  S S S S S S S S S S S S E E
|---7-------------------x---6-|
|-----------------------------|
|-----------0-4---4S5-----0---|
|-----x-0-x-----------x-------|


  S S S S S S S S S S S S S S S S   S S S S S S S S S S S S Q
|-----------------------x---------|-----------------------x----|
|---------------------------------|----------------------------|
|-----------0-4---4S5-----5S7-----|-----------0-4---4S5-----0--|
|-0-x-x-0-x-----------x-------x-x-|-0-x-x-0-x-----------x------|


  S S S S S S S S S S S S S S S S   S S S S S S S S S S S S Q
|-----------------------x---------|-----------------------x----|
|---------------------------------|----------------------------|
|-----------0-4---4S5-----5S7-----|-----------0-4---4S5--------|
|-0-x-x-0-x-----------x-------x-x-|-0-x-x-0-x-----------x---0--|


  S S S S S S S S S S S S S S S S
|-----------------------x---------|
|---------------------------------|
|-----------0-4---4S5-----5S7-----|
|-0-x-x-0-x-----------x-------x-x-|


  S S S S S S S S S S S S Q     a Q  S E S a E S S S S S S
|-----------------------x----||-7h9--7---7-------7---x-----|
|----------------------------||------------7h9-------------|
|-----------0-4---4S5-----0--||------------------------5---|
|-0-x-x-0-x-----------x------||----------------------------|


  S S S S S S S E  S  S  S  S S  S S   S S E Q  H
|-----------------11-12-10-11-9-10-8-|-9-9-----------*|
|-----5---5S7------------------------|---------------*|
|-7----------------------------------|---------------*|
|------------------------------------|---------------*|





Comments


Popular Level 42 tabs & chords
Dance On Heavy Weather Bass Tabs
Hot Water 1 Bass Tabs
Hot Water Live Bass Tabs
Tracie Intro Bass Tabs
Turn It On Bass Tabs
Something About You Chords
Running In The Family Intro Tabs
The Pursuit Of Accidents Tabs
To Be With You Again Ukulele
World Machine Ukulele


Song lyrics



↑ Back to top | Tablatures and chords are parodies/interpretations of the original songs. You may use it for private study, scholarship, research or language learning purposes only
© 2014 AZChords.com Contact us | Privacy policy | DMCA | Add/correct tabs | Request tabs | Top 50 tabs