» » »

Level 42, Living It Up Bass tabs (ver.1)

Artists:  A B C D E F G H I J K L M N O P Q R S T U V W X Y Z # 

Living It Up Bass tabs (ver.1)

Level 42 Tabs
Rating:
0/5 (0 votes)
Living It Up lessons Tabs too difficult? Try these video lessons and learn fast
                LIVING IT UP (THE SUN GOES DOWN)
                                    Level 42
 

 
Intro
||-------|--------------------------||
||o------|---------2------4----2-2-o||
||o------|-----2-4----2-4----4-----o||
||-------|--------------------------||
 

Then, before the verse:
|-------4-2---------|--------------------------||
|-----------4-2-----|---------2------4----2-2--||
|---------------2-4-|-2---2-4----2-4----4------||
|-------------------|--------------------------||
 

Then the verse. This part is played very staccato,
i.e the notes are slightly shorter than they should
be. But you know how it's supposed to sound.
 
||----------------------|---------------|
||o---------------------|---------------|
||o----------0-2-4--4---|---------------|
||--2-2-2--4----------2-|----2p0-0-0--0-|
 

|-------------------|--------------------||
|-----------------2-|-4--4-4-2--2-2-3-4-o||
|----------0-2-4----|-------------------o||
|-2-2--2-4----------|--------------------||
 

Then this is the part when Mark King decides it would
sound good for him to rap. Again, very staccato.
                                               4x
||----2--2----------------|--------------------||
||o------------0-0-1h2----|-0-0-1-------------o||
||o-0------4-4----------4-|-------------------o||
||------------------------|--------0--0-x-12\--||
 

This is it. Except for the little fill, where two notes
are popped at one point. As far as I know, it goes 
something like:
 
|---6(p4)------6(p4)---------|
 
They're in brackets, because  you do them really quickly,
just at the end of them, not as notes in themselves.
            
Submit corrections

comments powered by Disqus
↑ Back to top | Level 42 Bass for Living It Up. Lyrics for acoustic guitar and electric guitar. Tablatures and chords are parodies/interpretations of the original songs. You may use it for private study, scholarship, research or language learning purposes only