» » »

Led Zeppelin, Kashmir Tabs (ver.3)

Artists:  A B C D E F G H I J K L M N O P Q R S T U V W X Y Z # 

Kashmir Tabs (ver.3)

Led Zeppelin Tabs
 Rating:
4/5 (4 votes)
Kashmir lessons Tabs too difficult? Try these video lessons and learn fast
                (Unplugged)
(Intro)
D||------------------|------------------|------------------|
A||------------------|------------------|------------------|
G||------------------|------------------|------------------|
D||------------------|------------------|------------------|
A||------------------|------------------|------------------|
D||------------------|------------------|------------------|


                                                                            
----------0----------|------------0----0----|----0-------0------0----------|
----------0----------|------------0----0----|----0-------0------0----------|
----------2----------|------------5/-7-7/5/-|--7-7/5/-7--11/-9--11/-9--11--|
----------0----0--0--|------------0--0-0-0--|--0-0-0--0--0---0--0---0--0---|
----------0----3/-5--|------------3/-5-5/3/-|--5-5/3/-5--9/--7--9/--7--9---|
----------0----0--0--|------------0--0-0-0--|--0-0-0--0--0---0--0---0--0---|


                                                             
--0-----------------------------|----------------------0----|
--0-----------------------------|----------------------0----|
--14/-12----14--14----14/12/14--|--14/12---5/-7/-5/-7--0----|
--0---0-----0---0-----0--0--0---|--0--0----0--0--0--0--2----|
--12/-10----12--12----12/10/12--|--12/10---3/-5/-3/-5--0----|
--0---0-----0---0-----0--0--0---|--0--0----0--0--0--0--0----|


                                                                                
--0-------------------|------------------|------------------|------------------|
--0-------------------|------------------|------------------|------------------|
--5/-7-----5/7--------|------------------|------------------|------------------|
--0--0-----0-0--------|------------------|------------------|------------------|
--3/-5-----3/5--------|------------------|------------------|------------------|
--0--0-----0-0--------|------------------|------------------|------------------|
            
Submit corrections

comments powered by Disqus
↑ Back to top | Led Zeppelin Tabs for Kashmir. Lyrics for acoustic guitar and electric guitar. Tablatures and chords are parodies/interpretations of the original songs. You may use it for private study, scholarship, research or language learning purposes only