» » »

Since I've Been Loving You Tabs (ver.1)

Artists:  A B C D E F G H I J K L M N O P Q R S T U V W X Y Z # 

Since I've Been Loving You Tabs (ver.1)

Led Zeppelin
Rating:
0/5 (0 votes)

Tabs too difficult? Try these video lessons and learn fast.
                PROPS GO TO: Serious Hank

Key:

h=hammmer on
p=pull off
/=slide 
b^x=bend 
|
|=dividing lines, not bar lines
|

Intro to Since I've Been Loving You:

||--8-------------|-11-10-8-10-11-10-8---10-8-----|----|--------------------------------|
||8---11-8-11b^13-|--------------------9------9-9-|8---|--------------------------------|
||----------------|-------------------------------|--10|-7-8-10-7-8---------------------|
||----------------|-------------------------------|----|------------10-8-----------8/10-|
||----------------|-------------------------------|----|-----------------10-8p6---------|
||----------------|-------------------------------|----|------------------------8-------|

|----------------------------|-11-13-15p13p11-13-15-13-11-13-13-------|-13h15p13-11-13-
|----------------------------|----------------------------------13-13-|----------------
|8p7----7-8-10-10/12---12-12-|----------------------------------------|----------------
|----10----------------------|----------------------------------------|----------------
|----------------------------|----------------------------------------|----------------
|----------------------------|----------------------------------------|----------------

|15-13-11-13------|------------|----------8----------------------------------------|
|-----------13-13-|-8/11-------|--------8---11-8-----------------------------------|
|-----------------|------10/12-|-11b^13----------11-10-8-----10----8-7-------------|
|-----------------|------------|--------------------------10----10------10-8-8-8-8-|
|-----------------|------------|---------------------------------------------------|
|-----------------|------------|---------------------------------------------------|

|--------------|-----------------------------------|-------11-13-13b^15-13-11-13-13b^15-|
|--------------|-------------8-8-------11-13-13-13-|-11-13------------------------------|
|-8-7----------|-8-7----8-10-----10/12-------------|------------------------------------|
|-----10-8-8-8-|-----10----------------------------|------------------------------------|
|--------------|-----------------------------------|------------------------------------|
|--------------|-----------------------------------|------------------------------------|

|-----------------------|--------10-13-13b^15-13b^15-|-------------11---------11----
|-11p8----8h11p8----8-8-|-----11---------------------|-9-11-11b^13----11b^13-----11-
|------10--------10-----|-/12------------------------|------------------------------
|-----------------------|----------------------------|------------------------------
|-----------------------|----------------------------|------------------------------
|-----------------------|----------------------------|------------------------------

-13b^15-13b^15-13-13b^15-13---||
---------------------------13||
-----------------------------||
-----------------------------||
-----------------------------||
-----------------------------||


This version is a lot better than the other one floating around out there. enjoy.
            
Tabs too difficult? Try these video lessons and learn fast.




comments powered by Disqus
↑ Back to top | Tablatures and chords are parodies/interpretations of the original songs. You may use it for private study, scholarship, research or language learning purposes only