» » »

Led Zeppelin, The Ocean Tabs (ver.1)

Artists:  A B C D E F G H I J K L M N O P Q R S T U V W X Y Z # 

The Ocean Tabs (ver.1)

Led Zeppelin Tabs
 Rating:
4/5 (4 votes)
The Ocean lessons Tabs too difficult? Try these video lessons and learn fast
                Led Zeppelin (1973)
	          	         The Ocean
			     Houses of the Holy


Moderate Rock = 89

main rif :					*PM--------|
e-------------------------------------------------------------|
b-------------------------------------------------------------|
g-----------------------------------5-------7-------7---------|
d---5h7--5h7--5----------------5-7-----5-7-------------5--7---|
a----------------7-------------------------------4------------|
e-------------------8v----------------------------------------|
						*PM only 1st time

Verse :
   D7	        C	    A	     C D5 D7 	
e-------------------------------------------------------------|
b--7--7--7--7---5--5--5-5---2-----2-------7--7----------------|
g--5--5--5--5---5--5--5-5---2-----2-------5--5----------------|
d--7--7--7--7---5--5--5-5---2-----2--5/7--7--7----------------|
a--5--5--5--5---3--3--3-3---0-----0--3/5--5--5----------------|
e------------------------------3------------------------------|
  Singing   in the sunshine       laughing in    the rain.
  Hittin    on the moonshine      rockin in      the grain.
  Got no time to pack my bag      my foots outside the door.
  I got a date I cant be late for the High Hopes Haila Bail.

Interlude :		  PM--------------|
e-------------------------------------------------------------|
b-------------------------------------------------------------|
g-------------------------------------------------------------|
d---5h7--5h7--5------------------------------------5--------7-|
a----------------7---------------------------5--7-----5--7----|
e-------------------8---8-x-8-8-8-8--7-7-7--------------------|

e--------------|
b--------------|
g--------------|
d-----7--------|
a--4-----5--7--|
e--------------|

Guitar Solo :
guitar 1 :
e-------------------------------------------------------------|
b--5----5vvvv-------------------------------------------------|
g--7b---7bvvv---7b9r7--5-----------------------5----------7/9-|
d-------------------------5--7--7vvvv--------5---7--7vvv------|
a---------------------------------------5/7-------------------|
e-------------------------------------------------------------|
			        hold bend
e---8----------------------------^15-15--^-------------------5-|
b-8---10vv--10/19-------------15b---------r15-13-----------5---|
g------------------/17\9/14----------------------14vvv--/6-----|
d--------------------------------------------------------------|
a--------------------------------------------------------------|
e--------------------------------------------------------------|

e-------------------------------------------------------------|
b--8p5--8---8---8vv--5----------------------------------------|
g-------0---------------7b8r7p5-7-5------------------5--------|
d-----------------------------------5--7--7vvv-5---5---5h7--7-|
a----------------------------------------------5h7------------|
e-------------------------------------------------------------|

e----------------------------------------------8--------------|
b------------------5---------------5-5-------8---8h10--10/----|
g----------5-------5b6-------------5-5-----9------------------|
d--7--7vv----7--7--------7--(5)/7-------7vvv------------------|
a-------------------------------------------------------------|
e-------------------------------------------------------------|

e------15-15-----15-15-----15-15-----15-----------15---|
b--15b-------15b-------15b-------15b----15br--15b------|
g------------------------------------------------------|
d------------------------------------------------------|
a------------------------------------------------------|
e------------------------------------------------------|

After Solo Arrg. :

/guitars 3&4 :
| e-------------------------------------------------|
| b---7-7-7-7----5-5--5-5---------------5--7--/13\--|
| g---5-5-5-5----4-4--4-4---7---6----7--5--5--/17\--|
| d-------------------------5---4----5--------------|
| a-------------------------------------------------|
| e-------------------------------------------------|
|guitars 5&6 :
| e-------------------------------------------------|
| b---7-7-7-7----5-5--5-5---------------5-h7--/13\--|
| g---7-7-7-7----5-5--5-5--7----6----7--5-h7--/17\--|
| d------------------------7----5----7--------------|
| a-------------------------------------------------|
\ e-------------------------------------------------|

Outro : (Everything Speeds up)  = 126
  rake
e------10--12bv--12--10---------------------------------------|
b---10-------------------12b13--12vvv-10----12b--12--10----12-|
g-11-------------------------------------11-------------11----|
d-------------------------------------------------------------|
a-------------------------------------------------------------|
e-------------------------------------------------------------|
 				   rake   
e---------------------------------------10---12b--12--10--------|
b-10---10----------------------------10-------------------12b13-|
g------------11b12---11--9\\-------11---------------------------|
d---------------------------------------------------------------|
a------------------------------12-------------------------------|
e---------------------------------------------------------------|

figure the rest out yourself... its mostly in the key of D//
            
Submit corrections

comments powered by Disqus
↑ Back to top | Led Zeppelin Tabs for The Ocean. Lyrics for acoustic guitar and electric guitar. Tablatures and chords are parodies/interpretations of the original songs. You may use it for private study, scholarship, research or language learning purposes only