» » »

Led Zeppelin, Kashmir Bass tabs (ver.1)

Artists:  A B C D E F G H I J K L M N O P Q R S T U V W X Y Z # 

Kashmir Bass tabs (ver.1)

Led Zeppelin Tabs
 Rating:
4/5 (4 votes)
Kashmir lessons Tabs too difficult? Try these video lessons and learn fast
                This is the updated version of this tab. I played this at a show and this is exactly how 
played it. It sounded  a lot better than the other tabs on here for this song.


Main Riff:
G-------------------------------|
D-12-12-12----12-12-12----------|
A-------------------------------|
E----------------------------10-|


G--/9---7-----------------------------|
D----------10---7------7--------------|
A-------------------10----10-10-8-8---|
E-------------------------------------|

Fast Fill:
G--10-9-7-------------|
D-----------10-7-10---|
A-------------------- |
E---------------------|

Play this twice b4 repeating the lick:
G--------------------- |
D---------------7-\--- |
A—0—0—0-------0------0 |
E--------------------- |

Bridge/Outro
G--------------------- |
D--------------------- |
A--------------------- |
E--3-3-3~--5-5-5~----- |

**On the bridge part jpj variates the number of hits you do on the 3 and 5 so just kind 
listen to how it goes and you will get it.
            
Submit corrections

comments powered by Disqus
↑ Back to top | Led Zeppelin Bass for Kashmir. Lyrics for acoustic guitar and electric guitar. Tablatures and chords are parodies/interpretations of the original songs. You may use it for private study, scholarship, research or language learning purposes only