» » »

Led Zeppelin, Kashmir Tabs (ver.2)

Artists:  A B C D E F G H I J K L M N O P Q R S T U V W X Y Z # 

Kashmir Tabs (ver.2)

Led Zeppelin Tabs
 Rating:
4/5 (4 votes)
Kashmir lessons Tabs too difficult? Try these video lessons and learn fast
                Led Zeppelin - Kashmir

Drop-D Tuning

I'll Break this song into a few parts that are just repeated over and over

e-------------------------------
b-------------------------------
g--2--2--3--3--4--4--5--5--7----
d--0--0--0--0--0--0--0--0--0----
a--5--5--5--5--5--5--5--5--5----
D--0--0--0--0--0--0--0--0--0----

Repeat a bunch

e--10--10--8--8--5--5--3--3--1--1----------
b------------------------------------------
g--12--11--10-9--7--6--5--4--3--2----------
d------------------------------------3-2-0-
a------------------------------------------
D------------------------------------------

Repeat a bunch

e--------------------------------------
b--------------------------------------
g--2--2--2--2/6------------------------
d--2--2--2--3/7------------------------
a--0--0--0-----------------------------
D--------------------------------------

Repeat a bunch

theres mabye more but not much more
            
Submit corrections

comments powered by Disqus
↑ Back to top | Led Zeppelin Tabs for Kashmir. Lyrics for acoustic guitar and electric guitar. Tablatures and chords are parodies/interpretations of the original songs. You may use it for private study, scholarship, research or language learning purposes only