» » »

Kashmir Bass tabs (ver.3)

Artists:  A B C D E F G H I J K L M N O P Q R S T U V W X Y Z # 

Kashmir Bass tabs (ver.3)

Led Zeppelin
Rating:
0/5 (0 votes)

Hard to play? Try these video lessons and learn fast.
                -------------------------------------------------------------------------------
			     Kashmir - Led Zeppelin
-------------------------------------------------------------------------------

This tab follows the guitar, and is a bit more interesting and fun to play than just 
a D and an A the entire time.

Tuning: E, A, D, G

Intro Riff (only play once):
G|---222---222-----333---333------444---444-----555---555-----777------------|
D|--------------0--------------0-------------0-------------0-----------------|
A|---------------------------------------------------------------------------|
E|---------------------------------------------------------------------------|

Main Riff:
G|---222-----333---333------444---444-----555---555-----777------------------|
D|--------0--------------0-------------0-------------0-----------------------|
A|---------------------------------------------------------------------------|
E|---------------------------------------------------------------------------|

Keyboard solo thing (only play this right before the pre-chorus; you can also choose to 
out the notes on the D string except the last three):
G|--12-11-10-9--7-6-5-4-3-2--------------------------------------------------|
D|--12-12-10-10-7-7-5-5-3-3--320---------------------------------------------|
A|---------------------------------------------------------------------------|
E|---------------------------------------------------------------------------|

Alternate keyboard part (played once directly into the pre-chorus):
G|--12-11-10-9--7-6-5-4-3-2--------------------------------------------------|
D|--12-12-10-10-7-7-5-5-3-3--320--0------------------------------------------|
A|------------------------------02-------------------------------------------|
E|---------------------------------------------------------------------------|

Pre-Chorus:
G|---------------------------------------------------------------------------|
D|------------------7\---------------------------7\-----320--0---------------|
A|--0---0---0---------0----------0---0---0---------0-------02----------------|
E|---------------------------------------------------------------------------|

Chorus (octaves are optional; just play the higher ones if you want)
You can also improvise here. There's lots of opportunities to do so.
G|-----0------------------2--------------------------------------------------|
D|---------------------------------------------------------------------------|
A|------------------------0--------------------------------------------------|
E|-----3---------------------------------------------------------------------|

| /  slide up
| \  slide down
| h  hammer-on
| p  pull-off
| ~  vibrato
| +  harmonic
| x  Mute note
            
Hard to play? Try these video lessons and learn fast. | Correct




comments powered by Disqus
↑ Back to top | Tablatures and chords are parodies/interpretations of the original songs. You may use it for private study, scholarship, research or language learning purposes only