» » »

Again We Rise Tabs (ver.4)

Artists:  A B C D E F G H I J K L M N O P Q R S T U V W X Y Z # 

Again We Rise Tabs (ver.4)

Lamb Of God
Rating:
5/5 (3 votes)

Hard to play? Try these video lessons and learn fast.
                okay this isnt the full song
most of the parts to the other tabs are right
but here are some parts i noticed were off


the fill right before the verse
positive its 100 percent correct
E---------------------------|
B---------------------------|
G---------------------------|
D---7-5-4-----8p7-0h1h4-1h5-|
A-5-------5-4---------------|
D---------------------------|

the verse sounds the same
but this is played the way they play
so either way is fine
E--------------------------------------------------|
B--------------------------------------------------|
G--------------------------------------------------|
D---------------8-7---------------8-7---------10-8-|
A-------------5-----------------4-----------6------|
D-0-0-0-0-0-0-------0-0-0-0-0-0-------0-0-0--------|

E-------------------------------------------------|
B-------------------------------------------------|
G-------------------------------------------------|
D---------------8-7-------------------------------|
A-------------5-----------------3----3------------|
D-0-0-0-0-0-0-------6p3p0-6p0-3h6--6-3---6-3------|

E--------------------------------------------------|
B--------------------------------------------------|
G--------------------------------------------------|
D---------------8-7---------------8-7---------10-8-|
A-------------5-----------------4-----------6------|
D-0-0-0-0-0-0-------0-0-0-0-0-0-------0-0-0--------|

E-------------------------------------------------|
B-------------------------------------------------|
G-------------------------------------------------|
D---------------8-7-------5555555/66666-----------|
A-------------5-----------5555555/66666-----------|
D-0-0-0-0-0-0-------0-0-0-------------------------|

this is played over
the ending riff
once again it might sound the same
but its played the way they play it
so once again either way is fine
E-------------------------------------------------|
B-------------------------------------------------|
G-------------------------------------------------|
D-------------7-15-11-14-8-5-8--------------------|
A-------------------------------------------------|
D-0-0-0-0-0-0-------------------------------------|

uhhhhhh if theres anything that you want to
complain about or any questions
id be more than happy to help you
but uhhhhhhhhhhhhhh
i dont ever check my email so yeah sorry and ejoy
            
Hard to play? Try these video lessons and learn fast. | Correct




comments powered by Disqus
↑ Back to top | Tablatures and chords are parodies/interpretations of the original songs. You may use it for private study, scholarship, research or language learning purposes only